Buried
By The 17th Distrikt
Written by Philip Walls
Tabed by Philip Walls
) = Slide
} = Ring out

Intro

------22222------33333-----22222----3333----1111--------   } 2x  clear
--------------------------------------------------------
--------------------------------------------------------
--------------------------------------------------------
--------------------------------------------------------
--------------------------------------------------------

-----2--3--2--3--2--3--5--2--3--2--3--2--3--1-----------   }
-----2--3--2--3--2--3--5--2--3--2--3--2--3--1-----------    8x
-----2--3--2--3--2--3--5--2--3--2--3--2--3--1-----------
--------------------------------------------------------
--------------------------------------------------------
--------------------------------------------------------

Verse 1

-----22222----33333----22222-----3333-----1111----------
-----22222----33333----22222-----3333-----1111----------
-----22222----33333----22222-----3333-----1111----------
--------------------------------------------------------
--------------------------------------------------------
--------------------------------------------------------

Course

--22----33333-----22------11111------22-------33333-----22-------
--22----33333-----22------11111------22-------33333-----22-------
--22----33333-----22------11111------22-------33333-----22-------
-----------------------------------------------------------------   }
-----------------------------------------------------------------
-----------------------------------------------------------------    2x

Solo

---------------------------------------------
---------------------------------------------
---------------------------------------------
---------------------------------------------
----11-11-11-11-11-11-11-11------------------         5x
------------------12-12-12-12-12-12-12-12----

-----------------------------------------
-----------------------------------------
-----------------------------------------
-----------------------------------------   }
---11-11-11-11-11-11-11-11---------------       5x
-----------12--12-12-12-11-11-11-11------

------------------------------------------------
------------------------------------------------
------------------------------------------------
------------------------------------------------
---------11-------------11----------------11----
------------12------11--------12-----11---------   5x

End

-----0-----0-----0-----0-----0------0------------
-----0-----0-----0-----0-----0------0------------
-----0-----0-----0-----0-----0------0------------
-------------------------------------------------
-------------------------------------------------
-------------------------------------------------

---------------------------------------------
---------------------------------------------
---------------------------------------------
---------------------------------------------
------) ----- ) ----- )----------------------    5x
-----12-----3-----12-------------------------

Enjoy. [email protected]


Текст, аккорды и табулатура для песни "The 17th Distrikt - Buried", исполняет "Misc Unsigned Bands".
Используемые в песне аккорды можно найти в разделе Как брать аккорды. Аккорды для шестиструнной гитары. Другие песни можно найти на нашем сайте, воспользовавшись алфавитным указателем вверху страницы.


 
Ошибка в тексте? Выделите ошибку и нажмите Ctrl+Enter