-----------------------------------------------------------------------------
                      LAST MAN STANDING - sunniSIDEup                          
-----------------------------------------------------------------------------
this is a very new band who just started out.
they are from the united states and the dont have a official website.  

TABBED BY: corkdiggy (corey)
EMAIL: [email protected]


TUNNING: EAGDBe



INTRO

e)----------------------------------------------------------------------
B)----------------------------------------------------------------------
G)----------------------------------------------------------x2----------
D)----------------------------------------------------------------------
A)--------5---3--------5---3--------5---3--------5---3-2----------------
E)----3----3h5-----3----3h5-----3----3h5-----3----3h5-------------------

INTRO2

e)-----------------------------------------------
B)-----------------------------------------------
G)----------77777---------55555------------x2----
D)---55555--77777--77777--55555------------------
A)---55555--55555--77777--33333------------------
E)---33333---------55555-------------------------

VERSE

e)--------------------------------------------------------
B)--------------------------------------------------------
G)-----------------------5------------------------x4------
D)-----5--------7--------5--------------------------------
A)-----5--------7--------3--------------------------------
E)-----3--------5-----------------------------------------

pickings easy, you'll figure it out

CORUS

e)----------------------------------------------------
B)---------------------------------------------x4-----
G)------7---------------------------------------------
D)------7--------7--------3---------------------------
A)------5--------7--------3---------------------------
E)---------------5--------5---------------------------

SOLO

e)-----------------------------------------------------
B)------------------------------------------------x2---
G)-----------------------------------------------------
D)-----5-7-5-----5-7-5-----5-7-5-----5-7-9-10----------
A)----5---5-----5---5-----5---5-----5------------------
E)---3---------7---------3---------7-------------------


SEQUENCE

intro
intro2
verse
corus
intro2
verse
corus
solo
corus

 / SLIDE UP
 SLIDE DOWN
 h HAMMER ON
 p PULL OFF
 ~ VIBRATO
 + HARMONICS
 x MUTE NOTE
==========================================================================


Текст, аккорды и табулатура для песни "Sunnisideup - Last Man Standing", исполняет "Misc Unsigned Bands".
Используемые в песне аккорды можно найти в разделе Как брать аккорды. Аккорды для шестиструнной гитары. Другие песни можно найти на нашем сайте, воспользовавшись алфавитным указателем вверху страницы.


 
Ошибка в тексте? Выделите ошибку и нажмите Ctrl+Enter