this new band from pennsylvania called spooter, these guys are my friends from
church and i tabbed one of their punk rock songs called just call us rock stars
it is a very good song, but they havnt got lyrics for this yet.this group already
has a bunch of tabs on hear so look for them, 


intro:(palm muted)
e--------------------------------------------------
b--------------------------------------------------
g----------------------------2x--------------------
d-----11------9----6---76--------------------------
a---11------7-----7--9-----------------------------
e-9-------9-----5----------------------------------

c# 8x, A 1x, Ab 8x,B 1x,C# 4x, E 5x, A 4x, B 4x

verse: (palm muted)

e----------------------------------------------------------------
b---------------------------------------------------2x-----------
g----------------------------------------------------------------
d------11-----6-----6-----6----11----6----6----76----------------
a---11------7-----7-----7----11----7----7----7-------------------
e-9------9------5-----7----9-----9----5--------------------------




order:
intro
verse
chorus
verse(4x times instead of 2x)
chorus
intro


Текст, аккорды и табулатура для песни "Spooter - Just Call Us Rock Stars", исполняет "Misc Unsigned Bands".
Используемые в песне аккорды можно найти в разделе Как брать аккорды. Аккорды для шестиструнной гитары. Другие песни можно найти на нашем сайте, воспользовавшись алфавитным указателем вверху страницы.


 
Ошибка в тексте? Выделите ошибку и нажмите Ctrl+Enter