Sponge Cola
Philippines
spongecola.vze.com

Song: Crazy For You

First tym k lng mgsulat ng tabs kya medyo mlabo pa.
Tingnan nyo na lang sa baba ung mening ng symbols...:)

Strumming for this part and chorus: / | ^ / ^ / | ^ / ^ / ^ / ^

Intro: A E F#m D

(kung nalalabuan kyo gumamit kyo ng winamp at itaas ung pangatlong bar... may pattern 
mga plucking tabs d2 - as usual)

     A                         E
e||--0----0--------0--------|--0-0-0--0-----0-----------|
B||--2----------2--------2--|--0-0-0-----------0-----0--|
G||--2-------2--------2-----|--1-1-1-----1--------1-----|
D||--2----------------------|--2-2-2--------------------|
A||--0----------------------|--2-2-2--------------------|
E||--x----------------------|--0-0-0--------------------|
	Swaying home as the music starts...

  F#m                         D
							  /  / ^ / ^ / ^ /
e--2-2-2-----2--2--------2--|--2-2-2--2-----2--2-2-2-2-2-2-2-|
B--2-2-2--------2-----2-----|--3-3-3--------3--3-3-3-3-3-3-3-|
G--2-2-2--2-----2--2--------|--2-2-2-----2--2--------------2-|
D--4-4-4--------4-----------|--------------------------------|
A--4-4-4--------4-----------|--------------------------------|
E--2-2-2--------2-----------|--------------------------------|
	Strangers making the most of the dark...

  A                            E
e--0-0-0--0-------0-------0--|--0-0-0--0-------0-------0--|
B--2-2-2-------2-------2-----|--0-0-0-------0-------0-----|
G--2-2-2-----2-------2-------|--1-1-1-----1-------1-------|
D--2-2-2---------------------|--2-2-2---------------------|
A--0-0-0---------------------|--2-2-2---------------------|
E--x-x-x---------------------|--0-0-0---------------------|
	Two by two their bodies become one...

  F#m                          D
e--2-2-2--2-------2-------2--|--2-2-2--2-------2-------2--|
B--2-2-2-------2-------2-----|--3-3-3-------3-------3-----|
G--2-2-2-----2-------2-------|--2-2-2-----2-------2-------|
D--4-4-4---------------------|----------------------------|
A--4-4-4---------------------|----------------------------|
E--2-2-2---------------------|----------------------------|

  A                            E
e--0-0-0--0-------0-------0--|--0-0-0--0-----0-----------|
B--2-2-2-------2-------2-----|--0-0-0-----------0-----0--|
G--2-2-2-----2-------2-------|--1-1-1-----1--------1-----|
D--2-2-2---------------------|--2-2-2--------------------|
A--0-0-0---------------------|--2-2-2--------------------|
E--x-x-x---------------------|--0-0-0--------------------|

	I see you within the smoky air...
  F#m                          D
e--2-2-2--2-------2-------2--|--2-2-2--2-------2-------2--|
B--2-2-2-------2-------2-----|--3-3-3-------3-------3-----|
G--2-2-2-----2-------2-------|--2-2-2-----2-------2-------|
D--4-4-4---------------------|----------------------------|
A--4-4-4---------------------|----------------------------|
E--2-2-2---------------------|----------------------------|
	Can't you feel the weight of my stare...

  A                            E
e--0-0-0--0-------0-------0--|--0-0-0--0-----0-----------|
B--2-2-2-------2-------2-----|--0-0-0-----------0-----0--|
G--2-2-2-----2-------2-------|--1-1-1-----1--------1-----|
D--2-2-2---------------------|--2-2-2--------------------|
A--0-0-0---------------------|--2-2-2--------------------|
E--x-x-x---------------------|--0-0-0--------------------|
        You're so close but still a world away...

  F#m                          D
e--2-2-2--2-------2-------2--|--2----2----2--------||
B--2-2-2-------2-------2-----|--3----3----3--------||
G--2-2-2-----2-------2-------|--2----2----2--------||
D--4-4-4---------------------|---------------------||
A--4-4-4---------------------|---------------------||
E--2-2-2---------------------|---------------------||
	What I'm dyin' to say is that...

A
I'm crazy for you
E				F#m
Touch me once and you know it's true
D			A
I never wanted anyone like this
E
It's so brand new
F#m			    D [single strum]
You feel it in my kiss... I'm crazy for you

Strumming for this part: / | ^ / ^ | ^ / /

A 			E
Tryin' hard to control my heart
F#m 			D
I walk over to where you are

(iba na yung pattern ng strumming at spaces d2... pakinggan nyo na lng... kung gusto nyo 
nyong dead note ung last notes sa bawat measure)

  A                            E
e--0-0-0--0-------0----------|--0-0-0--0-------0----------|
B--2-2-2-------2-------------|--0-0-0-------0-------------|
G--2-2-2-----2-------2-------|--1-1-1-----1-------1-------|
D--2-2-2---------------------|--2-2-2---------------------|
A--0-0-0---------------------|--2-2-2---------------------|
E--x-x-x---------------------|--0-0-0---------------------|
	Two by two we need no words at all...

  F#m                          D
e--2-2-2--2-------2----------|--2-2-2--2-------2----------|
B--2-2-2-------2-------------|--3-3-3-------3-------------|
G--2-2-2-----2-------2-------|--2-2-2-----2-------2-------|
D--4-4-4---------------------|----------------------------|
A--4-4-4---------------------|----------------------------|
E--2-2-2---------------------|----------------------------|


  A                            E
e--0-0-0--0-------0----------|--0-0-0--0------0----------|
B--2-2-2-------2-------------|--0-0-0-------0------------|
G--2-2-2-----2-------2-------|--1-1-1-----1--------1-----|
D--2-2-2---------------------|--2-2-2--------------------|
A--0-0-0---------------------|--2-2-2--------------------|
E--x-x-x---------------------|--0-0-0--------------------|
	Slowly now as we begin to move...

   F#m                          D
e--2-2-2--2-------2----------|--2-2-2--2-------2----------|
B--2-2-2-------2-------------|--3-3-3-------3-------------|
G--2-2-2-----2-------2-------|--2-2-2-----2-------2-------|
D--4-4-4---------------------|----------------------------|
A--4-4-4---------------------|----------------------------|
E--2-2-2---------------------|----------------------------|
	With ev'ry breath come deeper into you...

   A                            E
e--0-0-0--0-------0----------|--0-0-0--0-----0-----------|
B--2-2-2-------2-------------|--0-0-0-----------0-----0--|
G--2-2-2-----2-------2-------|--1-1-1-----1--------1-----|
D--2-2-2---------------------|--2-2-2--------------------|
A--0-0-0---------------------|--2-2-2--------------------|
E--x-x-x---------------------|--0-0-0--------------------|
        So we do our standing still in time...

   F#m                          D
e--2-2-2--2-------2----------|--2----2----2--------||
B--2-2-2-------2-------------|--3----3----3--------||
G--2-2-2-----2-------2-------|--2----2----2--------||
D--4-4-4---------------------|---------------------||
A--4-4-4---------------------|---------------------||
E--2-2-2---------------------|---------------------||
	But if you read my mind you'll see...


Strumming for this part: / | ^ / ^ / | ^ / ^ / ^ / ^

A
I'm crazy for you
E				F#m
Touch me once and you know it's true
D			A
I never wanted anyone like this
E
It's so brand new
F#m			    D 			D(single strum 3X)
You feel it in my kiss... You feel it in my kiss because-

A
I'm crazy for you
E				F#m
Touch me once and you know it's true
D			A
I never wanted anyone like this
E
It's so brand new
F#m			    D [single strum]
You feel it in my kiss... I'm crazy for you

A
And you know its true
E
You know I'm crazy for you
F#m
And it's all brand new
D
You know I'm crazy for you
A
Yeah you know it's true
E			    F#m	D(single strum)
I'm crazy, crazy for you

Legend:
| 	slight pause
/ 	down stroke
^	upward stroke

para to sa lhat ng kumakanta ng Crazy for You sa Marist :)... tsaka syempre... lam nyo 
yun!


Текст, аккорды и табулатура для песни "Sponge Cola - Crazy For You", исполняет "Misc Unsigned Bands".
Используемые в песне аккорды можно найти в разделе Как брать аккорды. Аккорды для шестиструнной гитары. Другие песни можно найти на нашем сайте, воспользовавшись алфавитным указателем вверху страницы.


 
Ошибка в тексте? Выделите ошибку и нажмите Ctrl+Enter