Midnight Calling® 

I left the background on this page blank so that if anyone wants to print our
tabs they can go ahead and do it, just please make sure you get our permission
before you post them anywhere else.
--------------------------------------------------------------------------------

Intro (Em, C, A, G):
E--|----------------------------------------------|
B--|----------------1-1-1-1----0-0-0-0------------|
G--|----0-0-0-0---0-----------2----------0-0-0-0--|
D--|---2---------2-----------2----------0---------|
A--|--2---------3-----------0----------2----------|
E--|-0--------------------------------3-----------|


Play this last part (2x)


Song:

E--|----------------------------------------------|
B--|----------------------------------------------|
G--|--9-9-9---7---5---0-0-0-0-0-0-0---------------|
D--|--9-9-9---7---5---2-2-2-2-2-2-2---------------|
A--|--9-9-9---7---5---2-2-2-2-2-2-2---------------|
E--|--7-7-0---5---3---0-0-0-0-0-0-0---------------|

This last part is played (4x)

Bass first

A--|-------------------------|
E--|-7-7-0-5-3-0-0-0-0-0-0-0-|

Then guitar

E--|-------------------------|
B--|-------------------------|
G--|-7-----7----0------------|
D--|-7-----7----2------------|
A--|-7-----7----2------------|
E--|-5-----3----0------------|

This entire last part from Bass on is played (4x)

E--|----------------------------------------------------------------|
B--|----------------------------------------------------------------|
G--|-9-9--9--7--5--0-0-0-0-0-0-0---9-9--9-7-9--11-11-11-11-11-11-11-|
D--|-9-9--9--7--5--2-2-2-2-2-2-2---9-9--9-7-9--11-11-11-11-11-11-11-|
A--|-9-9--9--7--5--2-2-2-2-2-2-2---9-9--9-7-9--11-11-11-11-11-11-11-|
E--|-7-7--0--5--3--0-0-0-0-0-0-0---7-7--0-5-7--9-9-9-9-9-9-9--------|

This last part is played (4x)

E--|----------------------------------|
B--|----------------------------------|
G--|--9-9---9---7---5---0-0-0-0-0-0-0-|
D--|--9-9---9---7---5---2-2-2-2-2-2-2-|
A--|--9-9---9---7---5---2-2-2-2-2-2-2-|
E--|--7-7---0---5---3---0-0-0-0-0-0-0-|

Outro:

E--|---------------|
B--|---------------|
G--|-9--9--9--7--5-|
D--|-9--9--9--7--5-|
A--|-9--9--9--7--5-|
E--|-7--7--0--5--3-|


This last part is played (2x)

E--|------------------|
B--|------------------|
G--|-9--9--9--7--5--0-|
D--|-9--9--9--7--5--2-|
A--|-9--9--9--7--5--2-|
E--|-7--7--0--5--3--0-|

On this last part let let D and A ring

Ending (Em, C, A, G(slowing down)):

E--|----------------------------------------------|
B--|----------------1-1-1-1----0-0-0-0------------|
G--|----0-0-0-0---0-----------2----------0-0-0-0--|
D--|---2---------2-----------2----------0---------|
A--|--2---------3-----------0----------2----------|
E--|-0--------------------------------3-----------|

This last part is played (2x)

This next part is played really fast:

E--|-------------------------------|
B--|-------------------------------|
G--|--9--0--9--7--5--0--------0--0-|
D--|--9--9--9--7--5--2--------2--2-|
A--|--9--9--9--7--5--2--------2--2-|
E--|--7--7--0--5--3--0--------0--0-|

On this last part let lines D and A ring


End

This is one of my bands many songs. I am just trying to get our songs out
to the people. You can check the accuracy of these tabs at
www.somekindofhero.bravepages.com. There you will find all of our songs are
tabbed out. And, by the time you check the accuracy to our sites, I bet we will
have some of our sound bites up so you can here what these songs sound like and
compare the sound to the tab.


Текст, аккорды и табулатура для песни "Some Kind Of Hero - Midnight Calling", исполняет "Misc Unsigned Bands".
Используемые в песне аккорды можно найти в разделе Как брать аккорды. Аккорды для шестиструнной гитары. Другие песни можно найти на нашем сайте, воспользовавшись алфавитным указателем вверху страницы.


 
Ошибка в тексте? Выделите ошибку и нажмите Ctrl+Enter