Elvis Costello® 

I left the background on this page blank so that if anyone wants to print our
tabs they can go ahead and do it, just please make sure you get our permission
before you post them anywhere else.
--------------------------------------------------------------------------------

Intro:

E--|------------------------|
B--|------------------------|
G--|----2----0-0----------0-|
D--|---2----2-------0----2--|
A--|-0-----3-------2----2---|
E--|--------------3----0----|

This last part is played (4x)


Song -Chorus- (bar chords):

B B B (7); Em Em Em Em (0); G G G (3); D D D D (10);

D D D (10); G G G G (3); A A A (5); B B B B (7);

B B B (7); Em Em Em Em (0); G G G (3); B B B B (7);

B B B (7); Em Em Em Em (0)x2; G G G (3); Em Em Em Em (0)


Solo:

E--|---------------------------------------------------|
B--|---------------------------------------------------|
G--|----------0------------12--------------------------|
D--|----9----2-----5-----12------12----5-5----7----9-9-|
A--|---9----2-----5----12------12-----5------7----9----|
E--|--7----0-----3---10------10------3------5----7-----|

E--|-----------------------------------------------|
B--|-----------------------------------------------|
G--|----------0----------------------0-----------0-|
D--|----9----2-----5----9-9----9----2-----5-----2--|
A--|---9----2-----5----9------9----2-----5-----2---|
E--|--7----0-----3----7------7----0-----3-----0----|


Chorus (2x) then play (with chords barred):

G G G (3); A A A A (5); G G G (3); Em Em Em Em (0) 


Текст, аккорды и табулатура для песни "Some Kind Of Hero - Elvis Costello", исполняет "Misc Unsigned Bands".
Используемые в песне аккорды можно найти в разделе Как брать аккорды. Аккорды для шестиструнной гитары. Другие песни можно найти на нашем сайте, воспользовавшись алфавитным указателем вверху страницы.


 
Ошибка в тексте? Выделите ошибку и нажмите Ctrl+Enter