Blue Milk® 


I left the background on this page blank so that if anyone wants to print our
tabs they can go ahead and do it, just please make sure you get our permission
before you post them anywhere else.


--------------------------------------------------------------------------------
For This Song:
/ = Slide 


Intro:
G--|---------------------------------|
D--|---------------------------------|
A--|---------------------------------|
E--|-10---/--7---/--3---/--5---/--10-|

Play this last part (2x)

G--|-------------------------------------|
D--|-------------------------------------|
A--|-------------------------------------|
E--|-10-10-10---7-7-7---3-3-3---5--5-5-5-|


Play this last part (4x)
G--|-------------------------------------|
D--|-------------------------------------|
A--|-10-10-10---7-7-7---3-3-3---5--5-5-5-|
E--|-------------------------------------|

Play this last part (4x) getting progressively faster

G--|-------------------------------------|
D--|-------------------------------------|
A--|-------------------------------------|
E--|-10-10-10-7-7-7-7-3-3-3-5-5-5-5-/-10-|

Play this last part (4x) and after the 4th time play:

G--|--------------------------------------|
D--|--------------------------------------|
A--|Play the 10 and 7 notes then play this:
E--|-3-3-3-5-5-5-5------------------------|

Play this last part (4x)

G--|---------------|
D--|---------------|
A--|---------------|
E--|-4-4-4-6-6-6-6-|

Play this last part (4x)

G--|-----------------------------|
D--|-----------------------------|
A--|-------5-5-5-5-------3-3-3-3-|
E--|-3-3-3---------5-5-5---------|

Play this last part (4x) and after the 4th time play:

G--|-------------|
D--|-------------|
A--|-------3-3-3-|
E--|-5-5-5-------|

Play this last part (4x)

G--|-------------------------------------|
D--|-------------------------------------|
A--|-------------------------------------|
E--|-10-10-10-7-7-7-7-3-3-3-5-5-5-5-/-10-|

Play this last part (4x)

G--|----------------|
D--|----------------|
A--|----------------|
E--|-3-3-3-5--5-5-5-|

Play this last part (4x) and after the 4th time play:

G--|------------|
D--|------------|
A--|------------|
E--|-/--10---10-|

Learn more about this band at www.somekindofhero.bravepages.com. All of theses
songs should be accurate considering that the band that perfomes it are the ones
that are tabbing it and submitting it.


Текст, аккорды и табулатура для песни "Some Kind Of Hero - Blue Milk", исполняет "Misc Unsigned Bands".
Используемые в песне аккорды можно найти в разделе Как брать аккорды. Аккорды для шестиструнной гитары. Другие песни можно найти на нашем сайте, воспользовавшись алфавитным указателем вверху страницы.


 
Ошибка в тексте? Выделите ошибку и нажмите Ctrl+Enter