Newer band/has other tabs on this site-website_www.somekindofhero.tk

For This Song:
( ) = Pull 
x = Muted 



Intro:

A--|--------(12)--Ring--|
E--|-0-Ring-(12)--Ring--|

Prelude (G5 F C5 G5):

G--|---------------------5-5-5----------|
D--|-5-5-5-5---3-3-3-3---5-5-5--5-5-5-5-|
A--|-5-5-5-5---3-3-3-3---3-3-3--5-5-5-5-|
E--|-3-3-3-3---1-1-1-1----------3-3-3-3-|


Play this last part (4x)


Verse:

G--|-------------------5-5-5----------|
D--|-5-5-5-5--3-3-3-3--5-5-5--5-5-5-5-|
A--|-5-5-5-5--3-3-3-3--3-3-3--5-5-5-5-|
E--|-3-3-3-3--1-1-1-1---------3-3-3-3-|


Play this last part (3x)


G--|-------------------5-5-5--7-7-7-7-|
D--|-5-5-5-5--3-3-3-3--5-5-5--7-7-7-7-|
A--|-5-5-5-5--3-3-3-3--3-3-3--5-5-5-5-|
E--|-3-3-3-3--1-1-1-1-----------------|


Chorus:

G--|---------------5-5-x-----|
D--|-5-5-x--3-3-x--5-5-x-5-5-|
A--|-5-5-x--3-3-x--3-3-x-5-5-|
E--|-3-3-x--1-1-x--------3-3-|


This last part is played (3x)


G--|--------------5-5-x--7-7-|
D--|--5-5-x-3-3-x-5-5-x--7-7-|
A--|--5-5-x-3-3-x-3-3-x--5-5-|
E--|--3-3-x-1-1-x------------|


Verse:

G--|-------------------5-5-5----------|
D--|-5-5-5-5--3-3-3-3--5-5-5--5-5-5-5-|
A--|-5-5-5-5--1-1-1-1--3-3-3--5-5-5-5-|
E--|-3-3-3-3--1-1-1-1---------3-3-3-3-|


This last part is played (3x)


G--|-------------------5-5-5--7-7-7-7-|
D--|-5-5-5-5--3-3-3-3--5-5-5--7-7-7-7-|
A--|-5-5-5-5--3-3-3-3--3-3-3--5-5-5-5-|
E--|-3-3-3-3--1-1-1-1-----------------|


Guitar Solo:

G--|--0-7-0-5-3-5-3-5-3---|
D--|-0----------------5-3-|
A--|----------------------|
E--|----------------------|


Play this last part (3x)


G--|--0-7-0-5-3-5-3-5-3-------|
D--|-0-----------------5-3----|
A--|----------------------5-3-|
E--|--------------------------|


...Into...


G--|-------------------5-5-5----------|
D--|-5-5-5-5--3-3-3-3--5-5-5--3-3-3-3-|
A--|-5-5-5-5--3-3-3-3--3-3-3--5-5-5-5-|
E--|-3-3-3-3--1-1-1-1---------3-3-3-3-|


This last part is played (3x)


G--|-------------------5-5-5--7-7-7-7-|
D--|-5-5-5-5--3-3-3-3--5-5-5--7-7-7-7-|
A--|-5-5-5-5--3-3-3-3--3-3-3--5-5-5-5-|
E--|-3-3-3-3--1-1-1-1-----------------|


Chorus played along with drum solo...then...


Verse:

G--|-------------------5-5-5----------|
D--|-5-5-5-5--3-3-3-3--5-5-5--5-5-5-5-|
A--|-5-5-5-5--3-3-3-3--5-5-5--5-5-5-5-|
E--|-3-3-3-3--1-1-1-1---------3-3-3-3-|


G--|-------------------5-5-5--7-7-7-7-|
D--|-5-5-5-5--3-3-3-3--5-5-5--7-7-7-7-|
A--|-5-5-5-5--3-3-3-3--3-3-3--5-5-5-5-|
E--|-3-3-3-3--1-1-1-1-----------------|


Outro (G5 F C5 G5):

G--|--------------5-Ring-5----------|
D--|-5------3-----5-Ring-5---5------|
A--|-5------3-----3------3---5------|
E--|-3-Ring-1-Ring-----------3-Ring-|


This last part is played (2x)


G--|-------------------5-5-5----------|
D--|-5-5-5-5--3-3-3-3--5-5-5--5-5-5-5-|
A--|-5-5-5-5--3-3-3-3--3-3-3--5-5-5-5-|
E--|-3-3-3-3--1-1-1-1---------3-3-3-3-|


This last part is played (2x)


Second time end on G5 letting it ring.
__________________

End


Текст, аккорды и табулатура для песни "Some Kind Of Hero - Bite Me", исполняет "Misc Unsigned Bands".
Используемые в песне аккорды можно найти в разделе Как брать аккорды. Аккорды для шестиструнной гитары. Другие песни можно найти на нашем сайте, воспользовавшись алфавитным указателем вверху страницы.


 
Ошибка в тексте? Выделите ошибку и нажмите Ctrl+Enter