Artist : solitairy room 21
Song   : no wannabees

G|--------------------------------------------------------------------
D|--------------------------------------------------------------------
A|----------------------------4-4------------------4-4----------------
E|0-0-0--3-3-3--0-0-0--3-3-3-3----4-4--2-2-2-2-2-0-----4-4--2-2-2-2-2-

G|--------------------------------------------------------------------
D|--------------------------------------------------------------------
A|----------0-0-3h----------------------------------------------------
E|0--0-0-0-0----------------------------------------------------------

REPEAT 5 TIMES
REMEMBER IT'S AN EASY SONG!!!!!!!!!


this is our garage band


Текст, аккорды и табулатура для песни "Solitairy Room 21 - No Wannabees", исполняет "Misc Unsigned Bands".
Используемые в песне аккорды можно найти в разделе Как брать аккорды. Аккорды для шестиструнной гитары. Другие песни можно найти на нашем сайте, воспользовавшись алфавитным указателем вверху страницы.


 
Ошибка в тексте? Выделите ошибку и нажмите Ctrl+Enter