Band : Slanderers
Song : The Perfect Mistake

Alright, my first tab and The Slanderers first tab.
E-Mail me if you spot any mistakes... ([email protected])
However, I'm in the band and I wrote the music so they're aren't any.

     Intro
G)-------------------------------------------------------------------
D)14-14-14-14-14-12-11-11-11-11-11-14-12-12-12-12-12-11-9-9-9-9-9-12-
A)-------------------------------------------------------------------
E)-------------------------------------------------------------------

     Bridge1
G)-------------------------------------------------------------------
D)14-14-14-14-14-12-11-11-11-11-11-14-12-12-12-12-12-11-9-9-9-9-9-12-
A)-------------------9--9--9--9--9----10-10-10-10-10----7-7-7-7-7----
E)-------------------------------------------------------------------

     Bridge2
G)-------------------------------------------------------------------
D)14-14-14-14-14-12-11-11-11-11-11-14-12-12-12-12-12-11-9-9-9-9-9-12-
A)12-12-12-12-12-----9--9--9--9--9----10-10-10-10-10----7-7-7-7-7----
E)-------------------------------------------------------------------

     Verse
G)------------------------------------------------
D)14-14-14-14-14-14-14-14-11-11-11-11-11-11-11-11-
A)------------------------------------------------
E)------------------------------------------------

G)-----------------------------------------------
D)12-12-12-12-12-12-12-12-9-9-9-9-9-9-9-9--------
A)-----------------------------------------------
E)-----------------------------------------------

     Chorus
G)---------------------------------------------------------------
D)14-14-12-14-11--12-12-9-12-7--9-9-7-9-5--7-7-7-9----------7/14-
A)-------------------------------------------------9-9-9-7-------
E)---------------------------------------------------------------
     
     Outro
G)------------------------------------------------------------------
D)14-14-14-14-14-12-11-11-11-11-11-14-12-12-12-12-12-11-9-9-9-9-9---
A)12-12-12-12-12-----9--9--9--9--9----10-10-10-10-10----7-7-7-7-7-0-
E)------------------------------------------------------------------

Intro    x2
Bridge1  x1
Bridge2  x3
Verse    x4
Chorus   x2
Verse    x4
Chorus   x2
Verse    x4
Chorus   x2
Bridge2  x3
Outro    x1

Thanks to Tyler, Travis, and James... 2002.


Текст, аккорды и табулатура для песни "Slanderers - The Perfect Mistake", исполняет "Misc Unsigned Bands".
Используемые в песне аккорды можно найти в разделе Как брать аккорды. Аккорды для шестиструнной гитары. Другие песни можно найти на нашем сайте, воспользовавшись алфавитным указателем вверху страницы.


 
Ошибка в тексте? Выделите ошибку и нажмите Ctrl+Enter