This song is by my band, Sistum Replay, no, we didnt spell Sistum wrong, thats
how its spelt for the band, ok have fun learning it, JUST DONT STEEL IT!!


Intro (bass)

G-----------------------       G----------------------
D-----------------------       D----------------------
A-----------------------       A----------------------
E--0--000-3-000---------       E--0--000-5-000--------

G-----------------------
D-----------------------
A-----------------------
E--0--000-7-000---------

Chorus

G------------------------------------------------------
D-2-2-2-2----------------------------------------------
A---------5-5-5-5--------------------------------------   (2x)
E-----------------3-3-3-3----5-5-5-5-------------------

Verse

G---------------------------
D--2-2-2-2------------------
A----------3-3-3-3---------- (12x)
E---------------------------

Bridge

G------------------------------------------------------
D---2-2-2-2--------------------------------------------   
A-----------------------------------5-5-5-5------------   (2x)
E------------3-3-3-3-----5-5-5-5-----------------------


Tab order:

Intro
Chorus
Verse
Chorus
Bridge
Chorus
Verse
Chorus
Bridge


Текст, аккорды и табулатура для песни "Sistum Replay - Hearing Me Over", исполняет "Misc Unsigned Bands".
Используемые в песне аккорды можно найти в разделе Как брать аккорды. Аккорды для шестиструнной гитары. Другие песни можно найти на нашем сайте, воспользовавшись алфавитным указателем вверху страницы.


 
Ошибка в тексте? Выделите ошибку и нажмите Ctrl+Enter