New Band From Canada Website is being made. # people in the Band
Ryan Dolsen :Lead Guitar vocals
Justin Lorenowicz: Bass back up vocals
Jonathan Hall: Drums

Seafaring Platypus©
I was Wrong©

Verse 1:
G--------------------------:
D------------0----0--2-----:
A-0---4--------------------:
E-------2--0---2-----------:

Pre Chorus:
No bass

Chorus:
G-------------------------:
D-2-0---------------------:
A------4-2----------------:
E-------------------------:

Interlude:

Verse 2:
G--------------------------:
D------------0----0--2-----:
A-0---4--------------------:
E-------2--0---2-----------:

Pre Chorus:
No bass

Chorus:
G-------------------------:
D-2-0---------------------:
A------4-2----------------:
E-------------------------:

Verse 3:
G--------------------------:
D------------0----0--2-----:
A-0---4--------------------:
E-------2--0---2-----------:

Pre Chorus:
No bass

Solo:
G--------------------------:
D------------0----0--2-----:
A-0---4--------------------:
E-------2--0---2-----------:

Chorus 2x:


Текст, аккорды и табулатура для песни "Seafaring Platypus - I Was Wrong", исполняет "Misc Unsigned Bands".
Используемые в песне аккорды можно найти в разделе Как брать аккорды. Аккорды для шестиструнной гитары. Другие песни можно найти на нашем сайте, воспользовавшись алфавитным указателем вверху страницы.


 
Ошибка в тексте? Выделите ошибку и нажмите Ctrl+Enter