Caleb Scholl is a new band in FL. He has no website.
-----------------------------------------------
-----------------------------------------------
-----------------------------------------------
----5-----4-----7-----5-----4---4h5-----5-----4
-----------------------------------------------
0-0---0-0---0-0---0-0---0-0---0-----0-0---0-0--
. .   . .   . .   . .   . .   .     . .   . .

-----------------------------------------------
-----------------------------------------------
-----------------------------------------------
----2------------------------------------------  X4
----------5-----5---5p3------------------------
0-0---0-0---0-0---0----------------------------
. .   . .   . .   .

(4th time at the end slight variation):
-----------------------------------------------
-----------------------------------------------
-----------------------------------------------
-----------------------------------------------
----5-----5-----3------------------------------
0-0---0-0---0-0--------------------------------
. .   . .   . .

(Gtr. 1 only on intro)

Gtr.1-Verse/Chorus
-----------------------------------------------
-----------------------------------------------
---------55555555------------------------------
77777777-55555555-55555555-3333-2222-----------  X2
77777777-33333333-55555555-3333-2222-----------
55555555----------33333333-1111-0000-----------

-----------------------------------------------
-----------------------------------------------
---------5~------------------------------------
7~-------5~-------5~-------3~---2~-------------  X2
7~-------3~-------5~-------3~---2~-------------
5~----------------3~-------1~---0~-------------

Gtr.2-Verse/Chorus
-----------------------------------------------
-----------------------------------------------
99999999-1010101010101010-77777777-5555-4444---
xxxxxxxx--x-x-x-x-x-x-x-x-xxxxxxxx-xxxx-xxxx---  X2
77777777--8-8-8-8-8-8-8-8-55555555-3333-2222---
-----------------------------------------------

-----------------------------------------------
-----------------------------------------------
9~--------10~-------------7~-------5~---4~-----
x----------x--------------x--------x----x------  X2
7~---------8--------------5--------3----2------
-----------------------------------------------

Gtr.1-Prechorus (x4)
-----------------------------------------------
-----------------------------------------------
-----------------------------------------------
-----------------------------------------------
--------3-----3-------2-----2---------0-0-0-0--
5-5-5-5---5-5---3-3-3---3-3---1-1-1-1----------
. . . .   . .   . . .   . .   . . . .

-----------------------------------------------  
-----------------------------------------------
-----------------------------------------------
--------0-0-0-0--------------------------------
1-1-1-1----------------------------------------
. . . . 

Gtr.2-Prechorus (x4)
-----------------------------------------------
-----------------------------------------------
-----------------------------------------------
--------5-----5---------0-----0---------2-2-2-2
3-3-3-3---3-3---2-2-2-2---2-2------------------
--------------------------------3-3-3-3--------
. . . .   . .   . . . .   . .   . . . . 

-----------------------------------------------
-----------------------------------------------
-----------------------------------------------
--------2-2-2-2--------------------------------
-----------------------------------------------
3-3-3-3----------------------------------------
. . . .

Chorus
Prechorus
Bridge(Intro)
Chorus x2


Текст, аккорды и табулатура для песни "Scholl Caleb - Fly Away", исполняет "Misc Unsigned Bands".
Используемые в песне аккорды можно найти в разделе Как брать аккорды. Аккорды для шестиструнной гитары. Другие песни можно найти на нашем сайте, воспользовавшись алфавитным указателем вверху страницы.


 
Ошибка в тексте? Выделите ошибку и нажмите Ctrl+Enter