(New band. Already have a tab on UG.
www.therumuns.tk or [email protected] for any queries you might have)
-------------------------------------------------------------------------------
			     Mistakes - The Rum 'Uns                           
-------------------------------------------------------------------------------

Tabbed By : Rum_Bassist.com (Ben)
e-mail: [email protected]

Hey, it's me again! Here we go! Another tune by us. Hope you enjoy!

Tuning:Standard (G,D,A,E)


Intro (Bass intro, followed by drums after 1st time round, then guitar after 2nd) x4
G|---------------------------------------------------------------------------|
D|---------------------------------------------------------------------------|
A|-33333-55555-00000---------------------------------------------------------|
E|-------------------33333---------------------------------------------------|

Last time, end with-
E|-3-3-3-3-------------------------------------------------------------------|


Verse (x4) (then bass bridge, then x2)
G|---------------------------------------------------------------------------|
D|---------------------------------------------------------------------------|
A|-33333333-55555555-00000000-88888888---------------------------------------|
E|---------------------------------------------------------------------------|

Bass Bridge (x1)
G|---5------7------9---------------------------------------------------------|
D|-3---3--5---5--7---7-------------------------------------------------------|
A|---------------------------------------------------------------------------|
E|---------------------------------------------------------------------------|

Pre-Chorus (x2)
G|---------------------------------------------------------------------------|
D|---------------------------------------------------------------------------|
A|-333333333-----------------------------------------------------------------|
E|------------00000000-55555555-33333333-------------------------------------|

Chorus (x2)
G|---------------------------------------------------------------------------|
D|---------------------------------------------------------------------------|
A|-33333333-00000000-55555555------------------------------------------------|
E|----------------------------33333333---------------------------------------|

Bass Solo (x4)
G|---7---7------7---7--------------------------------------------------------|
D|-0---0---00-7---7---77-----------------------------------------------------|
A|---------------------------------------------------------------------------|
E|---------------------------------------------------------------------------|

G|---7---7------7---7--------------------------------------------------------|
D|-5---5---55-7---7---77-----------------------------------------------------|
A|---------------------------------------------------------------------------|
E|---------------------------------------------------------------------------|

On last time play extra-
G|---7---7------7---7-------7---7------7---7---------------------------------|
D|-5---5---55-7---7---77--5---5---55-7---7---77------------------------------|
A|---------------------------------------------------------------------------|
E|---------------------------------------------------------------------------|


Order:-
Intro (x4)
Verse (x4)
Bass Bridge (x1)
Verse (x2)
Pre-chorus (x2)
Chorus (x2)
Verse (x4)
Bass Bridge (x1)
Verse (x2)
Pre-Chorus (x2)
Chorus (x2)
Bass Solo (x4)
Chorus (x4)

There we go!! Another amazing song, by an amazing band! The Rum 'Uns! Rock on man!
===============================================================================


Текст, аккорды и табулатура для песни "Rum Uns - Mistakes", исполняет "Misc Unsigned Bands".
Используемые в песне аккорды можно найти в разделе Как брать аккорды. Аккорды для шестиструнной гитары. Другие песни можно найти на нашем сайте, воспользовавшись алфавитным указателем вверху страницы.


 
Ошибка в тексте? Выделите ошибку и нажмите Ctrl+Enter