INTRO
G: ---------------*-----------*    
D: ---------------*-----------*
A: ----0h3---0h5--*--33--55---*
E: 0h5----0h3-----*55--33-----*


VERSE
G: -----------------------------------------------
D: -----------------------------------------------
A: ---------3-33-3-3----------5-55-5-5------------
E: 5-55-5-5----------3-33-3-3---------------------

Chorus
G:------------------------------------
D:------------------------------------
A:--------345-5555555543--------------
E:55555555--------------3-------------
http://broken1921.tripod.com/rejectedangels/index.html


Текст, аккорды и табулатура для песни "Rejected Angels - Home Sweet Home", исполняет "Misc Unsigned Bands".
Используемые в песне аккорды можно найти в разделе Как брать аккорды. Аккорды для шестиструнной гитары. Другие песни можно найти на нашем сайте, воспользовавшись алфавитным указателем вверху страницы.


 
Ошибка в тексте? Выделите ошибку и нажмите Ctrl+Enter