Red Star Federation
Breathe(Instrumental)

intro:
G----------------------------
D----------------------------
A----------------------------
E-1-0-0-1-0-0-1-0-4-4-4-3-3-3 x6
at a good pace you'll figure the speed out after playing it

verses:
G----------------------------
D----------------------------
A----------------------------
E-1-1-1-1-4-4-4-3-3-3-4-4-3-3 x6
pretty fast

Chorus:
G----------------------------
D----------------------------
A----------------------------
E-1-0-0-1-0-0-1-0-4-4-4-3-3-3 x3
at a good pace you'll figure the speed out after playing it

verses:
G----------------------------
D----------------------------
A----------------------------
E-1-1-1-1-4-4-4-3-3-3-4-4-3-3 x6
pretty fast

Chorus:
G----------------------------
D----------------------------
A----------------------------
E-1-0-0-1-0-0-1-0-4-4-4-3-3-3 x8
at a good pace you'll figure the speed out after playing it


Текст, аккорды и табулатура для песни "Red Star Federation - Breathe", исполняет "Misc Unsigned Bands".
Используемые в песне аккорды можно найти в разделе Как брать аккорды. Аккорды для шестиструнной гитары. Другие песни можно найти на нашем сайте, воспользовавшись алфавитным указателем вверху страницы.


 
Ошибка в тексте? Выделите ошибку и нажмите Ctrl+Enter