Well...this song was written by my band but we're small time and haven't put
out a official album or anything yet.But we do exist.We're from Singapore,both
of these e-mail addresses exist and will be replied to,and we don't have a proper
webpage but we have this one http://www.xanga.com/home.aspx?user=lQuasarl
which is more like a basic information site for the band.
-------------------------------------------------------------------------------
Quasar - I Need You
-------------------------------------------------------------------------------
Tabbed by: razorb0iz & the rest of Quasar
Email: [email protected] OR [email protected]

Tuning: Standard (E A D G B E) ALTERNATIVE: go down Ѕ or 1 step or more if needed.

Strum the whole song to your own timing. An example :
Down, down up down, up down, down, up down.

This song is one of the first that the whole band decided to come up with
together. However, the lyrics have not been written, only the chords. The song
is very fast with electric guitars on the fill-ins and chorus.If you play these
chords and manage to come up with suitable song lyrics that can fit the title I
Need You (the song is about a friendship breaking up) then by all means please
send them to either of the e-mail accounts above.If we take any part or all of
your song and use it to write the final piece we WILL acknowledge your part in it
so please leave your name and If you want your e-mail address too when you send
in the lyrics. Thanks =)

[Fill-in] strum loudly
	Em7	           C		       G		   D
e|------0------------------3-------------------3-------------------5---------|
B|------0------------------3-------------------3-------------------7---------|
G|------0------------------5-------------------4-------------------7---------|
D|------2------------------5-------------------5-------------------7---------|
A|------2------------------3-------------------5-------------------5---------|
E|------0------------------3-------------------3-------------------5---------|

[Verse1] strum very softly...get gradually louder on last time
	Em7		   C		       G		   D
e|------0------------------3-------------------3-------------------5---------|
B|------0------------------3-------------------3-------------------7---------|
G|------0------------------5-------------------4-------------------7---------|
D|------2------------------5-------------------5-------------------7---------|
A|------2------------------3-------------------5-------------------5---------|
E|------0------------------3-------------------3-------------------5---------|

[Chorus] strum loudly
	Am	           C		       G		   D
e|------0------------------3-------------------3-------------------5---------|
B|------1------------------3-------------------3-------------------7---------|
G|------2------------------5-------------------4-------------------7---------|
D|------2------------------5-------------------5-------------------7---------|
A|------0------------------3-------------------5-------------------5---------|
E|------0------------------3-------------------3-------------------5---------|

[Fill-in] strum loudly
	Em7		   C		       G		   D
e|------0------------------3-------------------3-------------------5---------|
B|------0------------------3-------------------3-------------------7---------|
G|------0------------------5-------------------4-------------------7---------|
D|------2------------------5-------------------5-------------------7---------|
A|------2------------------3-------------------5-------------------5---------|
E|------0------------------3-------------------3-------------------5---------|


[Verse2] strum very softly...get gradually louder on last time
	Em7		   C		       G		   D
e|------0------------------3-------------------3-------------------5---------|
B|------0------------------3-------------------3-------------------7---------|
G|------0------------------5-------------------4-------------------7---------|
D|------2------------------5-------------------5-------------------7---------|
A|------2------------------3-------------------5-------------------5---------|
E|------0------------------3-------------------3-------------------5---------|


[Chorus] strum loudly
	Am		   C		       G	           D
e|------0------------------3-------------------3-------------------5---------|
B|------1------------------3-------------------3-------------------7---------|
G|------2------------------5-------------------4-------------------7---------|
D|------2------------------5-------------------5-------------------7---------|
A|------0------------------3-------------------5-------------------5---------|
E|------0------------------3-------------------3-------------------5---------|

[Bridge] strum loudly
	Dm                 F	               C            Csus	  C
e|-----1-------------------1-------------------0--------------1-----------0--|
B|-----3-------------------1-------------------1--------------1-----------1--|
G|-----2-------------------2-------------------0--------------0-----------0--|
D|-----0-------------------3-------------------2--------------2-----------2--|
A|-----0-------------------0-------------------3--------------3-----------3--|
E|-----0-------------------0-------------------0--------------0-----------0--|

[Chorus] strum loudly
	Am                 C	               G        	   D
e|------0------------------3-------------------3-------------------5---------|
B|------1------------------3-------------------3-------------------7---------|
G|------2------------------5-------------------4-------------------7---------|
D|------2------------------5-------------------5-------------------7---------|
A|------0------------------3-------------------5-------------------5---------|
E|------0------------------3-------------------3-------------------5---------|

[Outro] strum softly all the way. Gradually get softer.
	Em7		   C	               G                   D
e|------0------------------3-------------------3-------------------5---------|
B|------0------------------3-------------------3-------------------7---------|
G|------0------------------5-------------------4-------------------7---------|
D|------2------------------5-------------------5-------------------7---------|
A|------2------------------3-------------------5-------------------5---------|
E|------0------------------3-------------------3-------------------5---------|

| /  slide up
|   slide down
| h  hammer-on
| p  pull-off
| ~  vibrato
| +  harmonic
| x  Mute note
===============================================================================


Текст, аккорды и табулатура для песни "Quasar - I Need You", исполняет "Misc Unsigned Bands".
Используемые в песне аккорды можно найти в разделе Как брать аккорды. Аккорды для шестиструнной гитары. Другие песни можно найти на нашем сайте, воспользовавшись алфавитным указателем вверху страницы.


 
Ошибка в тексте? Выделите ошибку и нажмите Ctrl+Enter