Howdy fokes this is my freind and mines band out of service. we put a concert
on for are parents and played the base like this. It is almost the same as Van
morrisons verson of it. This is a new band.

Intro:
g-------------------------------------
d-------------------2-5--5------------     x2
a------------2-3--3--------3-5--------
e--0-2-3--3---------------------------


Veres:
g-------------------------------------
d------------------2-5--5-5-----------     x5
a---------2-3--3-3----------3-5--5-5--
e--3--3-3-----------------------------

g--------------------------------------
d--------------------------------------    x2
a--3--3-3--5--5-5--------5--5-5--7--7-7
e-----------------3--3-3---------------


Pre Chorus:
g---------------------------------------
d---------------------------------------   x1
a--5-5-5-5-5-5-5------------------------
e---------------------------------------

Chorus:
g---------------------------------------
d---------------------------------------   x2
a----------3-3-3-3---------5-5-5-5------
e--3-3-3-3---------3-3-3-3-------------- 

Solo:
g-------------------------------------------------------------------------------
d--5--5-5--5-5--5-5--5-5--5-5--5-3---------------------2-3-5--5-5---------------
a----------------------------------5-3--------2-3--3-3------------2-3-5--5-5----
e--------------------------------------3--3-3-----------------------------------

g--------------------------------------
d--------------------------------------
a--7-5h7-5-----------------------------
e--------------------------------------


then back to chourus then do this

g----------------------------------  
d----------------------------------   x2 then fade
a----------3-3-3-3---------5-5-5-5-
e--3-3-3-3---------3-3-3-3---------


Текст, аккорды и табулатура для песни "Out Of Service - Brown Eyed Girl", исполняет "Misc Unsigned Bands".
Используемые в песне аккорды можно найти в разделе Как брать аккорды. Аккорды для шестиструнной гитары. Другие песни можно найти на нашем сайте, воспользовавшись алфавитным указателем вверху страницы.


 
Ошибка в тексте? Выделите ошибку и нажмите Ctrl+Enter