No-Problemos are a local punk rock band in Leicester the official web page is
www.no-problemos.cjb.net

No-Problemos - Just good friends
Tuning: standard

Luke dosen't play the intro but I do, I always play song intro's with the guitars
even on dammit, its better than standing there like a prune 

Intro:

G----------------------------------------
D-----------------------------000--------
A-202----202-222-202-333-202-------------
E----333---------------------------------
Repeat intro

after intro do this 
A-202

Main riff
G---------------------
D---------------------
A-------2(x12)-3(x12)-
E-3(x12)--------------

there's a bridge part where you can do this
G------------
D---------0~-
A---2~--3~---
E-3~---------


Текст, аккорды и табулатура для песни "No-problemos - Just Good Friends", исполняет "Misc Unsigned Bands".
Используемые в песне аккорды можно найти в разделе Как брать аккорды. Аккорды для шестиструнной гитары. Другие песни можно найти на нашем сайте, воспользовавшись алфавитным указателем вверху страницы.


 
Ошибка в тексте? Выделите ошибку и нажмите Ctrl+Enter