Composed/Tabbed by : Matt Radford of No Longer Perfect (Canada)
http://www.nolongerperfect.tk
Tuning: Open D

(intro)
D------------------------------------------------------------------|-------
D------------------------------------------------------------------|-------
A----------0-------------0--------------0--------4---2p0-----------|-------
D-------0-----0-------0----0--------2-----2----------------2h4p2p0-|--4^r0- 
A----2-------------4-------------0---------------------------------|-------
D------------------------------------------------------------------|-------

(Chorus)
D---------------------------------------------------------------------------
D---------------------------------------------------------------------------
A-(4)(4)(4)(4)---4-4444-4-44-----7-7777-7-77-------------------------------- 
D-(4)(4)(4)(4)---4-4444-4-44-----7-7777-7-77-----7-7777-7-77-----5-5555-5-55
A-(2)(2)(2)(2)---2-2222-2-22-----5-5555-5-55-----7-7777-7-77-----5-5555-5-55
D------------------------------------------------7-7777-7-77-----5-5555-5-55

(Verse)
D-----0---0-----0--0-----0--0-----0--0------------------------------------- 
D-----0---0-----0--0-----0--0-----0--0------------------------------------- 
A-----4---4-----0--0-----7--7-----0--0------------------------------------- 
D-----4---4-----0--0-----7--7-----0--0------------------------------------- 
A-----2---2-----5--5-----5--5-----7--7------------------------------------- 
D----------------5--5--------------7--7------------------------------------ 

(Bridge)
D--------------------------------------------------------------------------- 
D--------------------------------------------------------------------------- 
A------4-------4---------------------------7--------7----------------------- 
D----4---4---4--4-------5--------5-------7---7----7---7-------7--------7----
A--2-------2-----------5---5---5----0--5--------5-----------7---7----7---0--
D--------------------5-------5----------------------------7--------7--------


Текст, аккорды и табулатура для песни "No Longer Perfect - Kind Of Guy", исполняет "Misc Unsigned Bands".
Используемые в песне аккорды можно найти в разделе Как брать аккорды. Аккорды для шестиструнной гитары. Другие песни можно найти на нашем сайте, воспользовавшись алфавитным указателем вверху страницы.


 
Ошибка в тексте? Выделите ошибку и нажмите Ctrl+Enter