-----------------------------------------------------------------------
	           Thursday Mornings - New Beginning     
-----------------------------------------------------------------------

Website: http://www.soundclick.com/bands/0/newbeginningmusic.htm

Tabbed by: Jeremiah Isaacson
Email: [email protected]

Tuning: Standard - Somewhat Fast

| /  slide up
|   slide down
| h  hammer-on
| p  pull-off
| ~  vibrato
| +  harmonic
| x  Mute note

:.:Intro:.:

e|-------------------------------------------------------------------|
B|-------------------------------------------------------------------|
G|------0-----0---------0----0---------------------------------------|
D|----0-----0---0-----0----0---0-------------------------------------|
A|--2-----3-------3-2----0-------0-----------------------------------|
E|-------------------------------------------------------------------|


e|-------------------------------------------------------------------|
B|-------------------------------------------------------------------|
G|------0-----0---------0----0---------------------------------------|
D|----0-----0---0-----0----0---0----------------0---0---0---0--------|
A|--2-----3-------3-2----0-------0------------5---5---5---5----------|
E|-------------------------------------------------------------------|

:.:Verse:.:

e|-------------------------------------------------------|
B|-------------------------------------------------------|
G|------0-----0---------0----0---------------------------|
D|----0-----0---0-----0----0---0-------------------------|
A|--2-----3-------3-2----0-------0-----------------------|
E|-------------------------------------------------------|

:.:Chorus:.:

e|-------------------------------------------------------|
B|-------------------------------------------------------|
G|-------0-----------0-------0-------0-------------------|
D|-----9-----------4-------5-------4---------------------|
A|--10-----10/5--5-----0-3-----0-5-----5/10--------------|
E|-------------------------------------------------------|

:.:End Chorus > Back To Verse Riff:.:

e|-------------------------------------------------------|
B|-------------------------------------------------------|
G|-------0-----------0-------0-------0------0-------0----|
D|-----9-----------4-------5-------4------5-------4---4--|
A|--10-----10/5--5-----0-3-----0-5----5-3-----0-5--------|
E|-------------------------------------------------------|

:.:Bridge:.:

e|------------------------------------------------------|
B|------------------------------------------------------|
G|------0-------0------------0--------0-----------------|
D|----2-------0------------7---/9---9---9---------------|
A|--3-----3-2-----2/5(0)-5-----/7-7-------7/3-----------|
E|------------------------------------------------------|





| /  slide up
|   slide down
| h  hammer-on
| p  pull-off
| ~  vibrato
| +  harmonic
| x  Mute note

=====================================================================


Текст, аккорды и табулатура для песни "New Beginning - Thursday Mornings", исполняет "Misc Unsigned Bands".
Используемые в песне аккорды можно найти в разделе Как брать аккорды. Аккорды для шестиструнной гитары. Другие песни можно найти на нашем сайте, воспользовавшись алфавитным указателем вверху страницы.


 
Ошибка в тексте? Выделите ошибку и нажмите Ctrl+Enter