artist: m.m.f
song: loves such a drag
tabbed by:steven miller(demonchild88)
e-mail adress: [email protected]

guitar 1(kyle)- standard, eadgbe
guitar 2(steven)- standard, eadgbe

interlude x4  
guitar 1 and 2( distortion)

e------------------------------------
b------------------------------------
g------------------------------------
d-----5----4-------7-----------------
a-5-5--5-5----0-0----7-7-7-7-7-------
e------------------------------------

verse guitar 1 (dist)x4
e----------------------------------------------------------------
b----------------------------------------------------------------
g-9-9-9-9-9-9-9-9------------------------------------------------
d-9-9-9-9-9-9-9-9-9-9-9-9-9-9-9-9-7-7-7-7-7-7-7-7-6-6-6-6-6-6-6-6
a-7-7-7-7-7-7-7-7-9-9-9-9-9-9-9-9-7-7-7-7-7-7-7-7-6-6-6-6-6-6-6-6
e-----------------7-7-7-7-7-7-7-7-5-5-5-5-5-5-5-5-4-4-4-4-4-4-4-4-

verse guitar 2(dist)x4

e------------------------------------------------------------------------
b------------------------------------------------------------------------
g-9-9-9-9-9-9-9-9--------------------------------------------------------
d-9-9-9-9-9-9-9-9-9-9-9-9-9-9-9-9-7-7-7-7-7-7-7-7-11-11-11-11-11-11-11-11
a-7-7-7-7-7-7-7-7-9-9-9-9-9-9-9-9-7-7-7-7-7-7-7-7--9--9--9--9--9--9--9--9
e-----------------7-7-7-7-7-7-7-7-5-5-5-5-5-5-5-5--9--9--9--9--9--9--9--9

chorus guitar 1 (dist)x4

e------------------------------------------------
b------------------------------------------------
g-7-7-7-7-7-7-7---------------9-9-9-9-9-9-9-9-9-9
d-7-7-7-7-7-7-7-7-7-7-7-7-7-7-9-9-9-9-9-9-9-9-9-9
a-5-5-5-5-5-5-5-7-7-7-7-7-7-7-7-7-7-7-7-7-7-7-7-7
e---------------5-5-5-5-5-5-5--------------------

chorus guitar 2 (dist)x4

e------------------------------------------------
b------------------------------------------------
g---------------------------------------9-9-9-9-9
d-7-7-7-7-7-7-7-7-7-7-7-7-7-7-----------9-9-9-9-9
a-5-5-5-5-5-5-5-x-x-x-x-x-x-x-10-10-9-9-7-7-7-7-7
e---------------5-5-5-5-5-5-5--------------------

repeat the following:
verse x4
chorus x4

solo x1
guitar 1 plays chorus while guitar 2 plays this:     b (^)=bend (^/) bend and
                                                                       release

e-------------------------------------------------------------------
b-10^---------------------------------------------------------------
g--9---99999999^--10-10-10--12-12-12^--14^/--12---------------------
d-----------------------------------------------14-14-14--12-12-----
a---------------------------------------------------------------12^/
e-------------------------------------------------------------------

repeat the following:

chorus x4
interlude x 4


there that's it, enjoy email me and when i get the website up and running
i'll e-mail you back with the adress:)


Текст, аккорды и табулатура для песни "Mmf - Loves Such A Drag", исполняет "Misc Unsigned Bands".
Используемые в песне аккорды можно найти в разделе Как брать аккорды. Аккорды для шестиструнной гитары. Другие песни можно найти на нашем сайте, воспользовавшись алфавитным указателем вверху страницы.


 
Ошибка в тексте? Выделите ошибку и нажмите Ctrl+Enter