-------------------------------------------------------------------------------
			ALL I NEEDED - Minor Federation
-------------------------------------------------------------------------------

Tabbed by: Andy 
Email: [email protected]

Tuning: Standard

Intro
GUITAR 1 and 2
|---------------------------------------------------------------------------|
|---------------------------------------------------------------------------|
|--777777--9-11--777777-------7777--9-11------------------------------------|
|--777777--9-11--777777--9-7--7777--9-11---5555-7777------------X2----------|
|--555555--7--9--555555--9-7--5555--7--9---5555-7777------------------------|
|------------------------7-5---------------3333-5555------------------------|

Verse 1 & 2
GUITAR 1 and 2
  * On every third note lift palm so that it's a normal note and not muted *
|---------------------------------------------------------------------------|
|---------------------------------------------------------------------------|
|---------------------------------------------------------------------------|
|------7--------------------------------------------------X4----------------|
|---55--5-------9--------7-------5------------------------------------------|
|------------77--7----55--5---33--3-----------------------------------------|
 PM.... ........ ........ ....... ..........................................

Verse Part 2
GUITAR 1 and 2

|---------------------------------------------------------------------------|
|---------------------------------------------------------------------------|
|----------------------------------------------------------77777777---------|
|-----7------9-------11-----------12---------7-------6-----77777777---------|
|--55--5--77--7---99----9---10-10----10---55--5---44--4----55555555---------|
|---------------------------------------------------------------------------|
 PM..  ...... .......  ...........  ......... ....... .

==============================================================================

VERSE 3 is played the same as Verse's 1 and 2 exept you play each broken chord
twice this time and miss out the Verse Part 2.

==============================================================================

Chorus
GUITAR 1 and 2

|---------------------------------------------------------------------------|
|---------------------------------------------------------------------------|
|---7777-9-11--7777-------7777-9-11-----------------------------------------|
|---7777-9-11--7777--9-7--7777-9-11---5555-7777------------X2---------------|
|---5555-7--9--5555--9-7--5555-7--9---5555-7777-----------------------------|
|--------------------7-5--------------3333-5555-----------------------------|

Outro (played over chorus from guitar 1)
GUITAR 2 (play normal first time then tremolo pick second time)

|---------------------------------------------------------------------------|
|---------------------------------------------------------------------------|
|--77777-9-11--77777------77777-9-11------------------end-on:-7-------------|
|--------------------9-7-------------55557777----X2-------------------------|
|---------------------------------------------------------------------------|
|---------------------------------------------------------------------------|


| /  slide up
|   slide down
| h  hammer-on
| p  pull-off
| ~  vibrato
| +  harmonic
| x  Mute note

===============================================================================


Текст, аккорды и табулатура для песни "Minor Federation - All I Needed", исполняет "Misc Unsigned Bands".
Используемые в песне аккорды можно найти в разделе Как брать аккорды. Аккорды для шестиструнной гитары. Другие песни можно найти на нашем сайте, воспользовавшись алфавитным указателем вверху страницы.


 
Ошибка в тексте? Выделите ошибку и нажмите Ctrl+Enter