M.I.L.K. do not have any homepage...
Country: Norway, Finnmark
This is M.I.L.K.s first song and it's 100% correct.

Intro and main:Bass
|-----------------------------------------------|
|-----------------------------------------------|
|-----3-3--1-1--0-1-0---------------------------|
|--3-------------------1------------------------|


1. gt. intro
|------------------------------------------------------|
|------------------------------------------------------|
|------------------------------------------------------|
|--5-----------------5---------------------------------|
|--5--let-ring-------5---let-ring----------------------|
|--3---------------- 3---------------------------------|

main riff (chours) 1. and 2.gt.
|----------------------------------------------|
|----------------------------------------------|
|-----5-5--3-3--0-3-0--------------------------|
|--5--5-5--3-3--0-3-0--3-----------------------|
|--5--3-3--1-1--0-1-0--3-----------------------|
|--3-------------------1-----------------------|

verse:bass
|-----------------------------------------------|
|-----------------------------------------------|
|------------------3-3-3------------------------|
|--5-5-5-5-3-3-3-3-------5--5-5-5---------------|

verse:1.gt. P.M.
|----------------------------------------------------|
|----------------------------------------------------|
|------------------5-5-5-----------------------------|
|--7-7-7-7-5-5-5-5-5-5-5-7--7-7-7--------------------|
|--7-7-7-7-5-5-5-5-3-3-3-7--7-7-7--------------------|
|--5-5-5-5-3-3-3-3-------5--5-5-5--------------------|

bridge: 1.gt  
|----------------------------------------------------|
|----------------------------------------------------|
|--7-7-7-7--5-5-5-5--3-3-3--2-2-2-2------------------|
|--7-7-7-7--5-5-5-5--3-3-3--2-2-2-2------------------|
|--5-5-5-5--3-3-3-3--1-1-1--0-0-0-0------------------|
|----------------------------------------------------|

bridge: 2.part 
|-----------------------------------------------------|
|-----------------------------------------------------|
|-----------------------------------------------------|
|--5-5-5-5--3-3-3-3--2--2--2--------------------------|
|--5-5-5-5--3-3-3-3--2--2--2--------------------------|
|--3-3-3-3--1-1-1-1--0--0--0--------------------------|

solo
|-------------------------------------------------------|
|----------------------------13-13--11-11--10-11-10-----|
|------------------------/12------------------------10--|
|----3-3--1-1--0-1-0------------------------------------|
|--3-----------------1----------------------------------|
|-------------------------------------------------------|

|-----------------------------------------------------|
|--8-8-8-8-7h8p7--11-11-11-11-10h11p10--8-8-8-8-7h8p7-|
|--7-7-7-7-7------10-10-10-10-10--------7-7-7-7-7-----|
|-----------------------------------------------------|
|-----------------------------------------------------|
|-----------------------------------------------------|

|-------------------------------------------------------|
|-------------------------------------------------------|
|--12b--12b--12b--12-10----10-8-----8-6-----------------|
|-----------------------12------10------8-6-------------|
|-------------------------------------------8-7-6-------|
|-------------------------------------------------8-7-6-|

|--------------------------------------------|
|--------------------------------------------|
|--------------------------------------------|
|--------------------------------------------|
|--------------------------------------------|
|--11-10-9--8-7-6--5-4-3---------------------|

bass intro: x2
bass keep playing: gt. intro x1
main riff: x4 
bass verse: x1
gt. verse: x6
main riff: x4 
gt. verse: x4
bridge part1: x2
bridge part2: x2
main riff: x4
solo: play main riff under solo
main riff: x4


Текст, аккорды и табулатура для песни "Milk - Milk", исполняет "Misc Unsigned Bands".
Используемые в песне аккорды можно найти в разделе Как брать аккорды. Аккорды для шестиструнной гитары. Другие песни можно найти на нашем сайте, воспользовавшись алфавитным указателем вверху страницы.


 
Ошибка в тексте? Выделите ошибку и нажмите Ctrl+Enter