Intro
G-------------------------------------------------------------------------------
D-------------------------------------------------------------------------------
A------5------------------------------------------------------------------------
E-----------5-----222----3------------------------------------------------------


Verse
G-------------------------------------------------------------------------------
D---------4---------------------------------------------------------------------
A-----5-------7-----------4----------------------1------------------------------
E---------------------5----------7-----------2--------4---------3---------------


Chorus
G-------------------------------------------------------------------------------
D-------------------------------------------------------------------------------
A------5------------------------------------------------------------------------
E-----------5-----222----3------------------------------------------------------


Текст, аккорды и табулатура для песни "Meet Luke - The Fiddly Song", исполняет "Misc Unsigned Bands".
Используемые в песне аккорды можно найти в разделе Как брать аккорды. Аккорды для шестиструнной гитары. Другие песни можно найти на нашем сайте, воспользовавшись алфавитным указателем вверху страницы.


 
Ошибка в тексте? Выделите ошибку и нажмите Ctrl+Enter