KANSAS CITY, MISSOURI 64118 USA
WWW.MATAHARIMUSIC.PROBOARDS27.COM
-------------------------------------------------------------------------------
			  MATAHARI - EMBRACE THE FALLEN
-------------------------------------------------------------------------------
Tabbed by:NEWKIRK
Email:[email protected]

Tuning:DROP D   2ND GUITAR PART
INTRO
e|-------3------------------------------------------------------------------
B|-------3------------------------------------------------------------------
G|-------3------X4----------------------------------------------------------
D|-------3-----------13-12-13-15-13-12-13---X2------------------------------
A|-------3------------------------------------------------------------------
E|-------3------------------------------------------------------------------   pm.............
PRE-VERSE
e|------7---7---------------------------------------5--5--------------------
B|------7---7---------------------------------------5--5--------------------
G|------7---7---------------------------------------5--5--------------------
D|------7---7---------------------------------------5--5--------------------
A|------7---7---------------------------------------5--5--------------------
E|------7---7---------------------------------------5--5-------------------
STRUM THIS LIKE 20 TIMES     STOP PLAYING         PICKUP HERE 20 TIMES AGAIN

VERSE
e|---5--------3-----------------------------------------------------------
B|---5--------3-----------------------------------------------------------
G|---5--------3-----------------------------------------------------------
D|---5---X4---3---X4-----X2-----------------------------------------------
A|---5--------3-----------------------------------------------------------
E|---5--------3-----------------------------------------------------------
PM...................................................

PLAY PRE-VERSE BECAUSE IT'S ALSO THE CHORUS
VERSE 
PRE-VERSE/CHORUS

BREAK
e|--5----------------3-----5-5----7----------------------------------------
B|--5----------------3-----5-5----7----------------------------------------
G|--5----------------3-----5-5----7----------------------------------------
D|--5---X8-----------3-----5-5----7----------------------------------------
A|--5----------------3-----5-5----7----------------------------------------
E|--5----------------3-----5-5----7----------------------------------------
PM.......

e|--3----------------5-----7-7----9----------------1ST SOLO-------------
B|--3----------------5-----7-7----9----------------1ST SOLO-------------
G|--3----------------5-----7-7----9----------------1ST SOLO-------------
D|--3----x8----------5-----7-7----9----------------1ST SOLO-------------
A|--3----------------5-----7-7----9----------------1ST SOLO-------------
E|--3----------------5-----7-7----9----------------1ST SOLO-------------
PM........   PLAY THE BREAK 4 TIMES LAST TIME JUST THE PM 3 THEN STOP  

PRE-VERSE/CHORUS X2

OUTRO
e|--5-5--------------------------------------------------------------------
B|--5-5--------------------------------------------------------------------
G|--5-5--------------------------------------------------------------------
D|--5-5---------------13-12-13-15-13-12-13-/////////////////---------------
A|--5-5--------------------------------------------------------------------
E|--5-5--------------------------------------------------------------------
PM.....                              SLIDE DOWN 4 LIKE 3 SECONDS SONG DONE


                              THE END/FIN

| /  slide up
|   slide down
| h  hammer-on
| p  pull-off
| ~  vibrato
| +  harmonic
| PM Palm Mute note
===============================================================================


Текст, аккорды и табулатура для песни "Matahari - Embrace The Fallen", исполняет "Misc Unsigned Bands".
Используемые в песне аккорды можно найти в разделе Как брать аккорды. Аккорды для шестиструнной гитары. Другие песни можно найти на нашем сайте, воспользовавшись алфавитным указателем вверху страницы.


 
Ошибка в тексте? Выделите ошибку и нажмите Ctrl+Enter