Check us out at : www.lksband.4t.com

Mikes Song 

Lesser Known Saint

Intro
Eb|---------------------------|---------------------------||
Bb|---------------------------|---------------------------||
Gb|-11------7-------4---------|-11------7-------4---------||
Db|---------------------------|---------------------------||
Ab|-9-------5-------2---------|-9-------5-------2---------||
Db|---------------------------|---------------------------||

Eb|---------------------------|---------------------------||
Bb|---------------------------|---------------------------||
Gb|-11------7-------4---------|-11------7-------4---------||
Db|---------------------------|---------------------------||
Ab|-9-------5-------2---------|-9-------5-------2---------||
Db|---------------------------|---------------------------||

Verses 1 and 2
Eb|---------------------------|---------------------------||
Bb|---------------------------|---------------------------||
Gb|-9-9-9-9--9-9-9b10-9-------|-5-5-5-5---7-7-7-7---------||
Db|---------------------------|---------------------------||
Ab|-7-7-7-7--7-7-7b8--7-------|-3-3-3-3---5-5-5-5---------||
Db|---------------------------|---------------------------||
   Repeat x4

Chorus
Eb|---------------------------|---------------------------||
Bb|---------------------------|---------------------------||
Gb|---------------------------|---------------------------||
Db|-5-4-2xx2----0-0-0-0-------|-5xx5-5-5-5--10-10-10-10---||
Ab|-5-4-2xx2----0-0-0-0-------|-5xx5-5-5-5--10-10-10-10---||
Db|-5-4-2xx2----0-0-0-0-------|-5xx5-5-5-5--10-10-10-10---||

Eb|---------------------------|---------------------------||
Bb|---------------------------|---------------------------||
Gb|---------------------------|---------------------------||
Db|-9-9-7-7-10-9-9-10-9-9-10-9|---------------------------||
Ab|-9-9-7-7-10-9-9-10-9-9-10-9|---------------------------||
Db|-9-9-7-7-10-9-9-10-9-9-10-9|---------------------------||

Eb|---------------------------|---------------------------||
Bb|---------------------------|---------------------------||
Gb|---------------------------|---------------------------||
Db|-----2xx2----0-0-0-0-------|-5xx5-5-5-5--10-10-10-10---||
Ab|-----2xx2----0-0-0-0-------|-5xx5-5-5-5--10-10-10-10---||
Db|-----2xx2----0-0-0-0-------|-5xx5-5-5-5--10-10-10-10---||

Eb|---------------------------|---------------------------||
Bb|---------------------------|---------------------------||
Gb|---------------------------|---------------------------||
Db|-9-9-7-7-10-9-9-10-9-9-10-9|---------------------------||
Ab|-9-9-7-7-10-9-9-10-9-9-10-9|---------------------------||
Db|-9-9-7-7-10-9-9-10-9-9-10-9|---------------------------||


Текст, аккорды и табулатура для песни "Lesser Known Saint - Mikes Song", исполняет "Misc Unsigned Bands".
Используемые в песне аккорды можно найти в разделе Как брать аккорды. Аккорды для шестиструнной гитары. Другие песни можно найти на нашем сайте, воспользовавшись алфавитным указателем вверху страницы.


 
Ошибка в тексте? Выделите ошибку и нажмите Ctrl+Enter