-------------------------------------------------------------------------------
			     the truth - kerplunk
-------------------------------------------------------------------------------

Tabbed by: anonymous
Email: none
Tuning:DADGBe
h=hammer on
p=pulloff                           INTRO (part 1)

Guitar 1 (clean)
e|---------------------------------------------------------------------------|
B|-2h3p2----2h3p2---5--------------------------------------------------------|
G|0-----3-0-------3-5-------Do 2x till guitar 2 comes in---------------------|
D|---------------------------------------------------------------------------|
A|---------------------------------------------------------------------------|
D|---------------------------------------------------------------------------|

Guitar 2 (semi distorted)
e|---------|-----------|----------|--------|-----|----------------------------|
B|----10---|------10---|-----10---|-----5--|-555-|------x2--------------------|
G|-10---10-|---10---10-|--10---10-|--5---5-|-555-|----------------------------|
D|0--0-----|--8--8-----|-7--7-----|-5--5---|-555-|----------------------------|
A|---------|-----------|----------|--------|-----|----------------------------|
D|---------|-----------|----------|--------|-----|----------------------------|

Guitar 1 and 2 crank up the distortion (INTRO PART 2)
e|---------------------------------------------|------------------------------|
B|----10----------10-----------10---------5----|---X 2------------------------|
G|1010--10----1010---10----1010---10----55--55-|------------------------------|
D|0-0---0-----8-8----8-----7-7----7-----55--55-|------------------------------|
A|---------------------------------------------|------------------------------|
D|---------------------------------------------|------------------------------|

e|---------------------------------------------------------------------------|
B|---------------------------------------------------------------------------|
G|----------------during verse there is only drums and bass------------------|
D|---------------------------------------------------------------------------|
A|---------------------------------------------------------------------------|
D|---------------------------------------------------------------------------|

                          chorus          (guitars 1 and two distorted)
e|---------------------------------------------------------------------------|
B|---------------------------------------------------------------------------|
G|101010--12---777---555-----------------------------------------------------|
D|101010--12---777---555------X 4--------------------------------------------|
A|8888----10---555---333-----------------------------------------------------|
D|8888----10---555---333-----------------------------------------------------|


            Bridge Guitar one distorted with a phaser pedal
e|---------------------------------------------------------------------------|
B|--------000555101010101010-------------------------------------------------|
G|--------0005558 8 8-7 7 7--------------------------------------------------|
D|---------------------------------------------------------------------------|
A|---------------------------------------------------------------------------|
D|---------------------------------------------------------------------------|
ORDER OF SONG
intro
verse 
chorus 
bridge 
verse 
chorus 
bridge 
outro (same as intro part 2)

I have seen these dudes many times play locally and talked to them they are great
===============================================================================


Текст, аккорды и табулатура для песни "Kerplunk - The Truth", исполняет "Misc Unsigned Bands".
Используемые в песне аккорды можно найти в разделе Как брать аккорды. Аккорды для шестиструнной гитары. Другие песни можно найти на нашем сайте, воспользовавшись алфавитным указателем вверху страницы.


 
Ошибка в тексте? Выделите ошибку и нажмите Ctrl+Enter