The Jealous Sound - Fold Out

Tabbed by: Kevin Rodriguez (I submitted another version on the same day like an hour 
than this one but i realized i messed up typing some of it so here it is again!)

(I tabbed this bad boy in like five minutes so excuse if something is wrong....I think I 
much got it though.....idk if there are more guitar riffs in the song though I think 
is like one more b4 and during the beginning of the chorus but oh well.....well if
there are any comments on additional riffs or tips on the ones I have now just go ahead
and take 
I have and work on it and then u can post it up urself when u have it down to what
u think is right. Rock On!)


Intro:

e:---------------------------------------------------------------------|
B:---------------------------------------------------------------------|
G:---------------------------------------------------------------------|
D:---------------------------------------------------------------------|
A:-5-5-7-10-9--7-9-10-12-9-10--5-7-10-9--7-9-10-12-9-10--5-5-7-10-9--7-|
E:---------------------------------------------------------------------|


e:---------------------------------------|
B:---------------------------------------|
G:---------------------------------------|
D:---------------------------------------|
A:-7-9-10-12-9-10--5-7-10-9--7-9-10-12-9-|
E:---------------------------------------|


Verses/Chorus:

e:---------|
B:---------|
G:---------|
D:-2-5-4-7-|
A:-2-5-4-7-|
E:-0-4-2-5-|

Other thingy during the chorus (u can hear it best near the 2:35 mark):

e:-5h7-10--|
B:---------|
G:---------|
D:---------|
A:---------|
E:---------|


Текст, аккорды и табулатура для песни "Jealous Sound - Fold Out", исполняет "Misc Unsigned Bands".
Используемые в песне аккорды можно найти в разделе Как брать аккорды. Аккорды для шестиструнной гитары. Другие песни можно найти на нашем сайте, воспользовавшись алфавитным указателем вверху страницы.


 
Ошибка в тексте? Выделите ошибку и нажмите Ctrl+Enter