----------------------------------------------------------------------------
			     Snobb - Jard
----------------------------------------------------------------------------
Hey, Im James Cook, the drummer of my basement band Jard. I put this tab on here
because I'm hoping that someone will notice by learning it, then e-mailing me to
tell me about any ways to promote my band. Now, the song is completely right,
because, well its mine, also its very straight forward, but very catchy. I hope
you guys like it, and would appressiate if you would e-mail me telling me what
you thought. Thanks

Tabbed by: Jard_Drummer
Email: [email protected]
Website: http://yahoo/geocities/jard.com
Tuning: Normal(E,A,D,G,B,e)


 Intro
e|--------------------------------------------------------------------------
B|--------------------------------------------------------------------------
G|--------------------------------------------------------------------------
D|-7~~~-6~~~-9~~~-4~~~-7~~~-6~~~-9~~~-3-------------------------------------
A|-7~~~-6~~~-9~~~-4~~~-7~~~-6~~~-9~~~-3-------------------------------------
E|-5~~~-4~~~-7~~~-2~~~-5~~~-4~~~-7~~~-1-------------------------------------
 
 Interlude(do this after every chorus)
e|-------------------------------------------------------------------------
B|-------------------------------------------------------------------------
G|-------------------------------------------------------------------------
D|-7-7xxxx-6-6xxxx-9-9-----4-4xxxx-7-7xxxx-6-6xxxx-9-9xxxx-3-3xxxx---------
A|-7-7xxxx-6-6xxxx-9-9xxxx-4-4xxxx-7-7xxxx-6-6xxxx-9-9xxxx-3-3xxxx---------
E|-5-5xxxx-4-4xxxx-7-7xxxx-2-2xxxx-5-5xxxx-4-4xxxx-7-7xxxx-1-1xxxx---------

 Verse(4x)
e|-------------------------------------------------------------------------
B|-------------------------------------------------------------------------
G|-------------------------------------------------------------------------
D|-7-7--6-6--9-9--4-4------------------------------------------------------
A|-7-7--6-6--9-9--4-4------------------------------------------------------
E|-5-5--4-4--7-7--2-2------------------------------------------------------

 Chorus(4x)
e|-------------------------------------------------------------------------
B|-------------------------------------------------------------------------
G|-------------------------------------------------------------------------
D|-7-7-7-7-6-6-6-6-9-9-9-4-444---------------------------------------------
A|-7-7-7-7-6-6-6-6-9-9-9-4-444---------------------------------------------
E|-5-5-5-5-4-4-4-4-7-7-7-2-222---------------------------------------------

 Bridge(First their is a little bass solo, then this)
e|-------------------------------------------------------------------------
B|-------------------------------------------------------------------------
G|-4~~~~3~~~-6~~~~2~~~--4~~~~3^~~~-6~~~~2~~~---------------------------
D|-------------------------------------------------------------------------
A|-------------------------------------------------------------------------
E|-------------------------------------------------------------------------

e|-------------------------------------------------------------------------
B|-------------------------------------------------------------------------
G|-------------------------------------------------------------------------
D|-777-666xx-99-9-4-44xx-777-666xx-99-9-3-33-------------------------------
A|-777-666xx-99-9-4-44xx-777-666xx-99-9-3-33-------------------------------
E|-555-444xx-77-7-2-22xx-555-444xx-77-7-1-11-------------------------------


Well thats it I really do hope that you people notice our sound. From what I got
from it, its kinda bluesy rock, or something like that. The song is not that hard
obviously, but it has a catchy tune. Enjoy, and plz e-mail me when you get the
chance to tell me about record lable offers or anything.

Here is the song stucture:
1.Intro
2.Interlude
3.Verse
4.Chorus
5.Interlude
6.Verse
7.Chorus
8.Bridge(dont forget the bass solo, i'll get that later)
9.Chorus(2x)

There you have it.


| /  slide up
|   slide down
| h  hammer-on
| p  pull-off
| ~  vibrato
| +  harmonic
| x  Mute note
============================================================================
Copywrite 2004


Текст, аккорды и табулатура для песни "Jard - Snobb", исполняет "Misc Unsigned Bands".
Используемые в песне аккорды можно найти в разделе Как брать аккорды. Аккорды для шестиструнной гитары. Другие песни можно найти на нашем сайте, воспользовавшись алфавитным указателем вверху страницы.


 
Ошибка в тексте? Выделите ошибку и нажмите Ctrl+Enter