-------------------------------------------------------------------------------
			     The Black Amnesias - Hope of the States
-------------------------------------------------------------------------------
hope of the states are this wicked new band from colchester.  their album was written 
their guitarist died but many of their songs can apply to this tragic event.

Tabbed by:psychotic niceguy
Email:[email protected]

Tuning:standard

e|---------0---------------0---------------0---------------0----------------|
B|-----1-------1-------1-------1-------0-------0-------0-------0------------|
G|---2---2---2---2---2---2---2---2---2---2---2---0---2---2---2---2----------|
D|-2---------------2---------------0---------------0------------------------|
A|--------------------------------------------------------------------------|
E|--------------------------------------------------------------------------|

this is my first tab, but i think this is along the right lines, any suggestions are welcomed


Текст, аккорды и табулатура для песни "Hope Of The States - The Black Amnesias", исполняет "Misc Unsigned Bands".
Используемые в песне аккорды можно найти в разделе Как брать аккорды. Аккорды для шестиструнной гитары. Другие песни можно найти на нашем сайте, воспользовавшись алфавитным указателем вверху страницы.


 
Ошибка в тексте? Выделите ошибку и нажмите Ctrl+Enter