The Guys In Colleges--USA
www.expage.com/theguysincolleges

-------------------------------------------------------------------------------
	     WHAT COULD I DO WITHOUT YOU? - The Guys In Colleges
-------------------------------------------------------------------------------

Tabbed by: Brian Mueller
Email: [email protected]

Tuning: EADGBe

Riff A
e|---------------------------------------------------------------------------|
B|---------------------------------------------------------------------------|
G|-----4-----2-----4-----2-----1-----2-----4-----6-----7-----6-----4-----2---|
D|---------------------------------------------------------------------------|
A|-0-0---0-0---0-0---0-0---0-0---0-0---0-0---0-0---0-0---0-0---0-0---0-0-----|
E|---------------------------------------------------------------------------|

e|---------------------------------------------------------------------------|
B|---------------------------------------------------------------------------|
G|-----1-----2-----4-----2---------------------------------------------------|
D|---------------------------------------------------------------------------|
A|-0-0---0-0---0-0---0-0-----------------------------------------------------|
E|---------------------------------------------------------------------------|
Riff B
e|---------------------------------------------------------------------------|
B|-2-2-2-2-2-2-4-4-4-4-4-4-6-6-6-6-6-6-7-7-7-7-7-7---------------------------|
G|-0-0-0-0-0-0-0-0-0-0-0-0-0-0-0-0-0-0-0-0-0-0-0-0---------------------------|
D|---------------------------------------------------------------------------|
A|---------------------------------------------------------------------------|
E|---------------------------------------------------------------------------|
Riff C
e|---------------------------------------------------------------------------|
B|---------------------------------------------------------------------------|
G|---------------------------------6-7-7-6-6-4-------------------------------|
D|-2-2-2-2-2-2---------------------x-x-x-x-x-x-------------------------------|
A|-0-0-0-0-0-0-2-2-2-2-2-2-4-4-4-4-4-5-5-4-4-2-------------------------------|
E|-------------0-0-0-0-0-0-2-2-2-2-------------------------------------------|
Riff D
e|---------------------------------------------------------------------------|
B|---------------------------------------------------------------------------|
G|-----------------------6-7-6-7-5-4-----------------------------------------|
D|-2-2-2-2---------------x-x-x-x-x-x-----------------------------------------|
A|-0-0-0-0-2-2-2-2-4-4-4-4-5-4-5-4-2-----------------------------------------|
E|---------0-0-0-0-2-2-2-----------------------------------------------------|
Riff E
e|---------------------------------------------------------------------------|
B|---------------------------------------------------------------------------|
G|----------------7-7-7-7-7-7-7-7--------------------------------------------|
D|-2-2----4-4-4-4-x-x-x-x-x-x-x-x--------------------------------------------|
A|-0-0----2-2-2-2-5-5-5-5-5-5-5-5--------------------------------------------|
E|---------------------------------------------------------------------------|
Riff F
e|---------------------------------------------------------------------------|
B|---------------------------------------------------------------------------|
G|-----------------------6-7-7-6-4-------------------------------------------|
D|-2-2-2-2-4-4-4-4-6-6-6-x-x-x-x-x-------------------------------------------|
A|-0-0-0-0-2-2-2-2-4-4-4-4-5-5-4-2-------------------------------------------|
E|---------------------------------------------------------------------------|


INTRO
Riff A x2
Riff B x2
Riff C x4

VERSE 1
Riff C x2
Riff C x2 (palm muted)

Riff C x2

VERSE 2 (repeat verse 1)

PRE-CHORUS
Riff D x2

CHORUS
Riff E x2
Riff F x2 (palm muted)

Riff C x2

VERSE 3 (repeat verse 1)

PRE-CHORUS

CHORUS

INTERLUDE
Riff A x2

OUTRO
Riff C x4

| /  slide up
|   slide down
| h  hammer-on
| p  pull-off
| ~  vibrato
| +  harmonic
| x  Mute note
===============================================================================


Текст, аккорды и табулатура для песни "Guys In Colleges - What Could I Do Without You", исполняет "Misc Unsigned Bands".
Используемые в песне аккорды можно найти в разделе Как брать аккорды. Аккорды для шестиструнной гитары. Другие песни можно найти на нашем сайте, воспользовавшись алфавитным указателем вверху страницы.


 
Ошибка в тексте? Выделите ошибку и нажмите Ctrl+Enter