this is my band,
it consists of
Kaine Eager(me) on guitar
Tom Bate on drums &
Tim Downs On Bass

Play in drop d


INTRO:x4

e|-----------------------------------------------------------------------------
b|-----------------------------------------------------------------------------
g|-----------------------------------------------------------------------------
d|-----------------------------------------------------------------------------
a|-----------------------------------------------------------------------------
d|-3-2-0--x4--6-5-0------------------------------------------------------------


NEXT RIFF: x4

e|-----------------------------------------------------------------------------
b|-----------------------------------------------------------------------------
g|-----------------------------------------------------------------------------
d|-------------------------------6-6-6-6-5-5-5-5-------------------------------
a|-------------------------------6-6-6-6-5-5-5-5-------------------------------
d|-3-2-0-3-2-0-3-2-0-3-2-0-3-2-0-6-6-6-6-5-5-5-5-------------------------------

VERSE:x4

e|-----------------------------------------------------------------------------
b|-----------------------------------------------------------------------------
g|-----------------------------------------------------------------------------
d|-------------4-4-4-3-3-3-3---------------------------------------------------
a|-5-~---5-4-3-4-4-4-3-3-3-3---------------------------------------------------
d|-------------4-4-4-3-3-3-3---------------------------------------------------

CHORUS:x8

e|-----------------------------------------------------------------------------
b|-----------------------------------------------------------------------------
g|-----------------------------------------------------------------------------
d|-5-5--7 7-7--2-2--3-3-3--7-7--5-5-5--2-2--3-3-3------------------------------
a|-5-5--7-7-7--2-2--3-3-3--7-7--5-5-5--2-2--3-3-3------------------------------
d|-5-5--7-7-7--2-2--3-3-3--7-7--5-5-5--2-2--3-3-3------------------------------

NEXT RIFF:x4

e|-----------------------------------------------------------------------------
b|-----------------------------------------------------------------------------
g|-----------------------------------------------------------------------------
d|-------------------------6---------------------------------------------------
a|-------------------------6---------------------------------------------------
d|-6-5-0-3-2-0-6-5-0-3-2-0-6---------------------------------------------------


thats it
cool hey


hi tim
doufour ha ha ! ! !


Текст, аккорды и табулатура для песни "Gravelrash - Submission Criminal", исполняет "Misc Unsigned Bands".
Используемые в песне аккорды можно найти в разделе Как брать аккорды. Аккорды для шестиструнной гитары. Другие песни можно найти на нашем сайте, воспользовавшись алфавитным указателем вверху страницы.


 
Ошибка в тексте? Выделите ошибку и нажмите Ctrl+Enter