www.gobetty.go.com
Band: Go Betty Go
Song: C'mon
Tabbed By: Jana

INTRO 2x
e|-----------------------------------------------------|
B|-----------------------------------------------------|
G|-----------------------------------------------------|
D|-------9-7-6-----------------------7-5-4-------------|
A|-7-7-7-------------6---6---6-5-5-5-------------4---4-|
E|-------------7-7-7---7---7---------------5-5-5---5---|

e|---
B|---
G|-9-
D|-9-
A|-7-
E|-0-

VERSE 2X (w/ PM here and there)
e|----------------------------------------------|
B|----------------------------------------------|
G|-99999999-------------------------------------|
D|-99999999-99999999-1111111111111111-55556666--|
A|-77777777-99999999-1111111111111111-55556666--|
E|----------77777777-9-9-9-9-9-9-9-9--33334444--|

CHORUS 1x
e|--------------------------------------------------|
B|--------------------------------------------------|
G|-99999999-----------------------------------------|
D|-99999999-99999999-1212121212121212-77779999------|
A|-77777777-99999999-1212121212121212-77779999------|
E|----------77777777-1010101010101010-55557777------|

VERSE 2X
CHORUS 2X

BRIDGE
e|--------|
B|--------|
G|--------|
D|-11-9-7-|4x
A|-11-9-7-|
E|-9--7-5-|

e|-------------------|
B|-------------------|
G|----------99999----|
D|-99999999-99999----|
A|-99999999-77777----|
E|-77777777----------|

SOLO 2x
e|---------------------------------------------------------------------------|
B|---------------------------------------------------------------------------|
G|---------------------------------------------------------------------------|
D|-----------666-55-99--------------------------------444-55-77--------------|
A|-777777777---------------------6-7-6-4---5555555555-------------7--7--976--|
E|---------------------777777777---------7----------------------55-55-77---7-|

CHORUS till the end...


Текст, аккорды и табулатура для песни "Go Betty Go - Cmon", исполняет "Misc Unsigned Bands".
Используемые в песне аккорды можно найти в разделе Как брать аккорды. Аккорды для шестиструнной гитары. Другие песни можно найти на нашем сайте, воспользовавшись алфавитным указателем вверху страницы.


 
Ошибка в тексте? Выделите ошибку и нажмите Ctrl+Enter