-------------------------------------------------------------------------------
			     Feel in Love - Garage Band 243
-------------------------------------------------------------------------------

Tabbed by: Kevin Chartier
Email: [email protected]

Tuning: Standard
 Intro                 Acoustic Nylon  Intro
e|-------0--(0)-------0--(0)-------0--(0)-------0-(0)---Wait-2-second---|
B|-------1------------0------------1------------0--------before-getting-|
G|-----2------------2------------2------------2-----------the-other-riff|
D|---2------------2------------2------------2--------------in-the-song--|
A|-0------------0------------0------------0-----------------------------|
E|----------------------------------------------------------------------|
 Riff        G           Em           ?           D
e|---------3-3------------0---------0-0-----------2----Electric--Clean--|
B|-----------0----------0-0-----------1---------3-3--------Tone---------|
G|-------0---0--------0---0-------2---2-------2---2---------------------|
D|---0-------0----2-------2---2-------2---0-------0-------4-times-------|
A|-----2-----2------2-----2-----0-----0-----0---------------------------|
E|-3---------3--0---------0-0---------0-0-------------------------------|
 Chorus
e|-3----------0----------0-----------2------------2-times---------------|
B|-0--X7------0--X5------1--X7-------3--X2------------------------------|
G|-0----------0----------2-----------2----------------------------------|
D|-0----------2----------2-----------0----------------------------------|
A|-2----------2----------0----------------------------------------------|
E|-3----------0----------0----------------------------------------------|
 Solo With a wha-wha pedal
e|-------9-------------9-------------9----------add-some-vibrato-and----|
B|--9-10---10-9---9-10---10-9---9-10---10-9------some-bend-and-some-----|
G|--------------9-------------8-------------7-----slide-pull-off-pull-on|
D|-------------------------------------------------and-lots-of-harmonic-|
A|----------------------------------------------------------------------|
E|--------------------------------------------------5-times-------------|
 Outro                         
e|---2h3h2h0--------------------333-------------------------------------|
B|-----------2h4h2h0------------000-------------------------------------|
G|-------------------4h2h0h4----000-------------------------------------|
D|------------------------------000-------------------------------------|
A|------------------------------222-------------------------------------|
E|------------------------------333-------------------------------------|

Intro (x1)                   I made that song with band garage band in Indiana
Riff (x4)                    and we are only 12 and 13 years old. The bass 
Chorus (x2)                  will come in september 2003, we are proud of or 
Riff (x4)                    song but we dont got lyric can u send me lyric
Chorus (x2)                  of your song if it talk about felling in love.
Riff (x4)                     
Solo (x5)                                      Thanks
Chorus (x3)                                        [email protected]
Outro (x1)


| /  slide up
|   slide down
| h  hammer-on
| p  pull-off
| ~  vibrato
| +  harmonic

===============================================================================


Текст, аккорды и табулатура для песни "Garage Band 243 - Feel In Love", исполняет "Misc Unsigned Bands".
Используемые в песне аккорды можно найти в разделе Как брать аккорды. Аккорды для шестиструнной гитары. Другие песни можно найти на нашем сайте, воспользовавшись алфавитным указателем вверху страницы.


 
Ошибка в тексте? Выделите ошибку и нажмите Ctrl+Enter