Band: Fulkcan
Name of song: Send me away
Tabbed out by: David williams (the guitarist of fulkcan)

             Legend
             / slide down 
             x palm mute
             *  let ring out for 2 seconds
             
Intro
e----------------------------------------------------------
b----------------------------------------------------------
g----------------------------------------------------------
d-77777x-777777-44444x-------------------------------------
a-55555x-444444-22222x-555555------------------------------
e----------------------333333------------------------------x4

Verse
e----------------------------------------------------------
b----------------------------------------------------------
g----------------------------------------------------------
d-----7------7------7------4------4------------------------
a-5-5-5--5-5-5--4-4-4--2-2-2--2-2-2------5------7----------
e------------------------------------3-3-3--5-5-5----------x4

Chorus
e----------------------------------------------------------
b----------------------------------------------------------
g----------------------------------------------------------
d-77777-----------------6/5--------------------------------
a-55555-77777-99999-777-4/7--------------------------------
e-------55555-77777-555------------------------------------x4

Verse
e----------------------------------------------------------
b----------------------------------------------------------
g----------------------------------------------------------
d-----7------7-----7------4------4-------------------------
a-5-5-5--5-5-5--4-4-4--2-2-2--2-2-2------5------7----------
e------------------------------------3-3-3--5-5-5----------x2

Chorus
e----------------------------------------------------------
b----------------------------------------------------------
g----------------------------------------------------------
d-77777-----------------6/5--------------------------------
a-55555-77777-99999-777-4/7--------------------------------
e-------55555-77777-555------------------------------------x4

Solo/Interlude (play fast)
e----------------------------------------------------------
b----------------------------------------------------------
g----------------------------------------------------------
d----7----7----7----7----7----7--4*------------------------
a-5-5--5-5--5-5--4-4--4-4--4-4---2*----5----5----5---------
e-----------------------------------3-3--3-3--3-3----------x4
   last time let ring out longer and go strait into chorus

Chorus
e----------------------------------------------------------
b----------------------------------------------------------
g----------------------------------------------------------
d-77777-----------------6/5--------------------------------
a-55555-77777-99999-777-4/7--------------------------------
e-------55555-77777-555------------------------------------x4

End on
e----------------------------------------------------------
b----------------------------------------------------------
g----------------------------------------------------------
d-5--------------------------------------------------------
a-7--------------------------------------------------------
e----------------------------------------------------------

           
               visit Fulkcan's official website at


Текст, аккорды и табулатура для песни "Fulkcan - Send Me Away", исполняет "Misc Unsigned Bands".
Используемые в песне аккорды можно найти в разделе Как брать аккорды. Аккорды для шестиструнной гитары. Другие песни можно найти на нашем сайте, воспользовавшись алфавитным указателем вверху страницы.


 
Ошибка в тексте? Выделите ошибку и нажмите Ctrl+Enter