+++++++++++++++++++++++++++++++++++++++++++++++++++++++++++++++++++++++++++++++
One Of A Kind
+++++++++++++++++++++++++++++++++++++++++++++++++++++++++++++++++++++++++++++++
This is the cover that Fortissimo does of Brodie and it is totally awesome.
It should on our next demo, and possibly our first CD (PEELED).  This is how
we do the song.  -Grand Ma$ter *J*

Intro:
e|-----------------
B|-----------------
G|-----------------
D|---7-------------
A|---5---7----5----
E|-------5----3----

Lead Part
e|-----------------------------------------------------------------------------
B|-----------------------------------------------------------------------------
G|-12-11-------------------12-11----------------------------12-11--------------
D|-------12-12---14--12----------12--14----12-11--12--12----------12-12---14-12
A|-----------------------------------------------------------------------------
E|-----------------------------------------------------------------------------

Verse 1: Palm muted
e|--------------------
B|--------------------
G|--------------------
D|--7-----------------
A|--5---7---5---------
E|------5---3---------

Chorus
e|----------------------------
B|----------------------------
G|----------------------------
D|--7----------4--------------
A|--5---7---5--2--7-----------
E|------5---3-----5-----------

Verse 2: Palm muted
e|-----------------------------
B|-----------------------------
G|-----------------------------
D|--7--------------------------
A|--5--7---5-------------------
E|-----5---3-------------------

Chorus
e|----------------------------
B|----------------------------
G|----------------------------
D|--7----------4--------------
A|--5---7---5--2--7-----------
E|------5---3-----5-----------

Bridge:
e|------------------------------
B|------------------------------
G|------------------------------
D|------------------------------
A|---5---5---7------------------
E|---3---2---5------------------

Solo
e|-------------------------------------------------------------------
B|-------------------------------------------------------------------
G|---7----7-9-11-9---9-11-12-12-11---------11-9-------9-11--14~~~~---
D|---------------------------------12-----------12-12----------------
A|------------------------------------10-----------------------------
E|-------------------------------------------------------------------

e|-------------------------------------------------------------------
B|-------------------------------------------------------------------
G|--------16---14----------11-12-11----------11-9-------9------------
D|--12-14------------12-14----------12------------12-11---12~~~------
A|-------------------------------------10----------------------------
E|-------------------------------------------------------------------

Rythym plays the verse chords Palm muted during the solo

then comes the part with Kevin singing without any guitars 'cept for three little 
parts in this order:

   [ #1  pickslide]  [   #2  ]  [   #3   ]
e|------------------|---------|------------|
B|------------------|---------|------------|
G|------------------|---------|------------|
D|---------------7--|---------|------------|
A|---------------5--|--7xxxx7-|--7xxx5xxx--|
E|--x----|--5xxxx5-|--5xxx3xxx--|

imediately after #3, start playing the chorus and play the chorus 2x and end on this:

   let ring
e|---------------------
B|---------------------
G|---------------------
D|--7---7---7---7------
A|--5---5---5---5------
E|---------------------

thats the entire song, begining to end, with no parts left out.  Its in the
correct order too.  I just didnt feel like writing out the strumming cuz that
takes forever.  Check us out when we start playing some shows.  Touring with us
will be Mary In The Microwave which is a side project that out singer Kevin is
involved with.  Rock on!
-Fortissimo guitarist (Grand Master *J*)


Текст, аккорды и табулатура для песни "Fortissimo - One Of A Kind", исполняет "Misc Unsigned Bands".
Используемые в песне аккорды можно найти в разделе Как брать аккорды. Аккорды для шестиструнной гитары. Другие песни можно найти на нашем сайте, воспользовавшись алфавитным указателем вверху страницы.


 
Ошибка в тексте? Выделите ошибку и нажмите Ctrl+Enter