Tite: I Feel Sorry
Artist: Emergency Exit
Website: www.emergencyexit.741.com

The Song's easy but it kicks ass. listen to the song for timing.
~ let ring
x play multiple times.
Intro-Chorus
G------------------------------
D------------------------------
A--5-h7-5-h7--------5--7--7----   2X
E------------5----5-7--------2-


Verse
G--------------------------------------
D--------------------------------------
A-55555557----------------------------- 2X
E----------55555554-00000000-22222222--

Bridge
G-------------------------------------
D-------------------------------------
A-5~-----7-7----7-7------------------- 1X
E----5~------2------2~----------------

G------------------------------
D------------------------------
A-5x-----7-7-----7-7-----------
E----5x------2-------2---------


Текст, аккорды и табулатура для песни "Emergency Exit - I Fell Sorry", исполняет "Misc Unsigned Bands".
Используемые в песне аккорды можно найти в разделе Как брать аккорды. Аккорды для шестиструнной гитары. Другие песни можно найти на нашем сайте, воспользовавшись алфавитным указателем вверху страницы.


 
Ошибка в тексте? Выделите ошибку и нажмите Ctrl+Enter