this is a freakin' easy as heck song. but I'm only writing rythm guitar hey
I can't believe that no one has wrote any tabs for this band, holy crabby
pattties.j/k this is a great song. you can download it from there website at district28.com 

Artist: district 28
Song: the slow song
Tabbber: justin

intro:just wait...you'll hear it 
|-------------------------|
|-------------------------|
|7------------------------|  
|7------5------9------7---|
|5------5------9------7---|
|-------3------7------5---|

|------------------------------|
|------------------------------|
|7777777-----------------------|
|777777755555559999999977777777| (x3)
|555555555555559999999977777777|
|-------33333337777777755555555|

verse:
|-------------------------|
|-------------------------|
|7------------------------|  
|7------5------9------7---|
|5------5------9------7---|
|-------3------7------5---|

|------------------------------|
|------------------------------|
|7777777-----------------------|
|777777755555559999999977777777| 
|555555555555559999999977777777|
|-------33333337777777755555555|

interlude:
|------------------------------|
|------------------------------|
|7777777-----------------------|
|777777755555559999999977777777| (x4)
|555555555555559999999977777777|
|-------33333337777777755555555|

verse:
|-------------------------|
|-------------------------|
|7------------------------|  
|7------5------9------7---|
|5------5------9------7---|
|-------3------7------5---|

|------------------------------|
|------------------------------|
|7777777-----------------------|
|777777755555559999999977777777| 
|555555555555559999999977777777|
|-------33333337777777755555555|

Chorus:
|-------------------------|
|-------------------------|
|7------------------------|  
|7------5------9------7---|
|5------5------9------7---|
|-------3------7------5---|

|------------------------------|
|------------------------------|
|7777777-----------------------|
|777777755555559999999977777777| 
|555555555555559999999977777777|
|-------33333337777777755555555|

interlude:
|------------------------------|
|------------------------------|
|7777777-----------------------|
|777777755555559999999977777777| (x4)
|555555555555559999999977777777|
|-------33333337777777755555555|

verse:
|----------|
|----------|
|7~--------|
|7~--------|
|5~--------|
|----------|

|-------------------------------|
|-------------------------------|
|777777777777777777777777777777~|
|xxxxxxxxxxxxxxxxxxxxxxxxxxxxxx~| (x4)
|555555555555555555555555555555~|
|-------------------------------|

wierd thing:
P.M............................
|------------------------------|
|------------------------------|
|7777777-----------------------|
|777777755555559999999977777777| (x4)
|555555555555559999999977777777|
|-------33333337777777755555555|

|------------------------------|
|------------------------------|
|7777777-----------------------|
|777777755555559999999977777777| (x4)
|555555555555559999999977777777|
|-------33333337777777755555555|

Chorus:
|------------------------------|
|------------------------------|
|7777777-----------------------|
|777777755555559999999977777777| (x4)
|555555555555559999999977777777|
|-------33333337777777755555555|

|--|
|--|
|7~|
|7~|
|5~|
|--|

|------------------------------|
|------------------------------|
|7777777-----------------------|
|777777755555559999999977777777| (x6)
|555555555555559999999977777777|
|-------33333337777777755555555|


|-------|
|-------|
|7x7x---|
|7x7x5~-|
|5x5x5~-|
|----3~-|

well this is it and wheew this one was pretty boring cause it was so easy
oh well I didn't get tired of listening to it. lol.  so yeah this is it -k- c-ya


Текст, аккорды и табулатура для песни "District 28 - The Slow Song", исполняет "Misc Unsigned Bands".
Используемые в песне аккорды можно найти в разделе Как брать аккорды. Аккорды для шестиструнной гитары. Другие песни можно найти на нашем сайте, воспользовавшись алфавитным указателем вверху страницы.


 
Ошибка в тексте? Выделите ошибку и нажмите Ctrl+Enter