Official band website[URL]: http://www.disagreeband.com/

Artist: Disagree
Title: Crumbs
Album: At The End of The Day

chords - 
     G   Em7 Dsus4 Cadd9
E||--3----3----3----3----||
B||--3----3----3----3----||
G||--0----0----2----0----||
D||--0----2----0----2----||
A||--2----2---------3----||
E||--3----0--------------||



Intro: G Em7 Dsus4 Cadd9

Verse/Chorus:
G
Big world 

Em7
says he wants to see the

Dsus4
light for once, 

Cadd9               G 
Well maybe if you try 

Em7
It's so sad 

Dsus4
babe don't look so sad 

Cadd9
I've got it wrong today 

G               Em7

Bridge:
Cadd9                    Dsus4
And if she doesn't go your way

Cadd9                          Dsus4   
look up to blue skies and say hey 

Cadd9                         Dsus4
It's ok, it's ok.....

back to VERSE/CHORUS

Solo :

E----------------------------------------------------------------------
B----------------------------------------------------------------------
G-------------4h5-----------7-5-4-------4h5------------4h5-5-----------
D--3/5-5--5h7-----5h7-5--4h5-4-4-5--5h7-----5h7-5---4h5----------------
A--------------------------------------------------7-------------------
E----------------------------------------------------------------------

E----------------------------------------------------------------------
B----------8-7^--------8-7^--------------------------------------------
G--4-4-5-7-------4-5-7-------4-5-7-5-4^------4h5-----------7-5-4-------
D----------------------------------------5h7-----5h7-5--4h5-4-4-5------
A----------------------------------------------------------------------
E----------------------------------------------------------------------

E----------------------------------------------------------------------
B----------------------------------------------------------------------
G-----7-5-4------7-5-4-------------------------------------------------
D--4h5-4-4-5--4h5-4-4-5--4h5h7-4h7-5-----------------------------------
A----------------------------------------------------------------------
E----------------------------------------------------------------------


Текст, аккорды и табулатура для песни "Disagree - Crumbs", исполняет "Misc Unsigned Bands".
Используемые в песне аккорды можно найти в разделе Как брать аккорды. Аккорды для шестиструнной гитары. Другие песни можно найти на нашем сайте, воспользовавшись алфавитным указателем вверху страницы.


 
Ошибка в тексте? Выделите ошибку и нажмите Ctrl+Enter