Band : Counterfit Sound
Song : Whats Up With You!!


hey!!! another tab,another great song!!

intro/verse/chorus
e-------------------------------------------------------------------------
B-------------------------------------------------------------------------
G--------------------------------------------------7-7-7-7-5-5-5-5--------
D--2-2-2-2-2-2-2-2-5-5-5-5-5-5-5-5-7-7-7-7-7-7-7-7-7-7-7-7-5-5-5-5--------
A--2-2-2-2-2-2-2-2-5-5-5-5-5-5-5-5-7-7-7-7-7-7-7-7-5-5-5-5-3-3-3-3--------
E--0-0-0-0-0-0-0-0-3-3-3-3-3-3-3-3-5-5-5-5-5-5-5-5------------------------

bridge
e-------------------------------------------
B-------------------------------------------
G------------------7-7-7-7-5-5-5-5----------
D--2-2-2-2-2-2-2-2-7-7-7-7-5-5-5-5----------
A--2-2-2-2-2-2-2-2-5-5-5-5-3-3-3-3----------
E--0-0-0-0-0-0-0-0--------------------------

Lyrics;

verse 1
For all you know it's not for real
Spare me the obsession that you deal
If only you knew wouldn't it be nice
Another day in paradise

Chorus
In my years i've seen all sounds of misconception
In my years i've done all life can question
So what's up with you,what's up with me
What's up with you,what's up with me!!

Verse 2
Simple words, i can't relate
What's come easy is now too late
Believing is all i've got to pass the time
Coz now i am well passed my prime

Order;
Intro
Verse 1
Bridge
Chorus
Bridge
Verse 2
Bridge
Chorus
Intro

Our website will be up and running soon it is; http://www.thecounterfitsound.co.uk


Текст, аккорды и табулатура для песни "Counterfit Sound - Whats Up With You", исполняет "Misc Unsigned Bands".
Используемые в песне аккорды можно найти в разделе Как брать аккорды. Аккорды для шестиструнной гитары. Другие песни можно найти на нашем сайте, воспользовавшись алфавитным указателем вверху страницы.


 
Ошибка в тексте? Выделите ошибку и нажмите Ctrl+Enter