-------------------------------------------------------------------------------
			     corruption - better of dead
-------------------------------------------------------------------------------

Tabbed by:scott morrison glenn mcguir + michael patterson
Email: [email protected]

Tuning:drop d  

ok heavy band, this is our first song 
we are 

 scott morrison-lead guitar/vocals
glenn-rythem guitar/backing vocals
michael-drums


-introduction-

  glenn
e|-----------------------------------------------------|
B|-----------------------------------------------------|
G|-----------------------------------------------------|
D|-xx-x--xx-x--xx-x--xx-x------------------------------|
A|-xx-x--xx-x--xx-x--xx-x------------------------------|
d|-xx-x--xx-x--xx-x--xx-x------------------------------|
  fm_____________________

  scott
e|---------------------------------------------------|
B|---------------------------------------------------|
G|---------------------------------------------------|
D|---------------------------------------------------|
A|--------------------------0h2h3-0h2h3-0h2h3-0h2h3--|
d|-0h2h3-0h2h3-0h2h3-0h2h3--0h2h3-0h2h3-0h2h3-0h2h3--|x2
                            dist...................

  scott
e|---------------------------------------------------|
B|---------------------------------------------------|
G|---------------------------------------------------|
D|-xx-x--xx-x--xx-x--x-------------------------------|
A|-xx-x--xx-x--xx-x--x-------------------------------|
d|-xx-x--xx-x--xx-x--x-------------------------------|
  fm__________________


-verse-               -link-

  glenn               
e|-------------------|----------------------|
B|-------------------|----------------------|
G|-------------------|----------------------|
D|-------------------|----------------------|
A|-0000000033332222--|-0000000022223333-----|
e|-0000000033332222--|-0000000022223333-----|


-chorus-


  glenn + scott
e|----------------------------------------|
B|----------------------------------------|
G|----------------------------------------|
D|-77777777-55555555-22222222-33333333----|
A|-77777777-55555555-22222222-33333333----|
d|-77777777-55555555-22222222-33333333----|

  glenn + scott

e|----------------------------------------------------------|
B|----------------------------------------------------------|
g|----------------------------------------------------------|
D|-77777777-55555555-22222222-2h3-33--2h3-33-2h3-33--2h3-33-|
A|-77777777-55555555-22222222-2h3-33--2h3-33-2h3-33--2h3-33-|
d|-77777777-55555555-22222222-2h3-33--2h3-33-2h3-33- 2h3-33-|

  -bridge-


  scott
e|----------------------------------------------------------|
B|----------------------------------------------------------|
G|----------------------------------------------------------|
D|----------------------------------------------------------|
A|---------------------------0h2h3-0h2h3-0h5h7-0h5h7--------|
d|-0h2h3-0h2h3--0h5h7-0h5h7---------------------------------|




-heavy bit/verse 3-  

  glenn + scott
e|--------------------------------|
b|--------------------------------|
g|--------------------------------|
d|-0--3--2------------------------|
a|-0--3--2------------------------|
D|-0--3--2------------------------|

order-

intro| sector switch(5)
verse| guitars only
verse| lyrics start
link|
verse|
link|
chorus|
link|
verse|
link |
heavy bit verse|
bridge|sector switch(1)
chorus|sector switch(5)


Текст, аккорды и табулатура для песни "Corruption - Better Of Dead", исполняет "Misc Unsigned Bands".
Используемые в песне аккорды можно найти в разделе Как брать аккорды. Аккорды для шестиструнной гитары. Другие песни можно найти на нашем сайте, воспользовавшись алфавитным указателем вверху страницы.


 
Ошибка в тексте? Выделите ошибку и нажмите Ctrl+Enter