Cool Kids of Death
Na wszystkie cztery strony

IINTRO/VERSE
e|---------------------------------   ----------------|
B|---------------------------------   ----------------|
G|-000000-777777-------------------   ----------------|
D|-222222-777777-555555-777-55-7-5-   --XXXXX---------|
A|-222222-555555-555555-777-55-7-5-END--XXXXX---------|
E|-000000--------333333-555-33-5-3-   --XXXXX---------|

CHORUS
e|-------------------------------------------------|
B|-------------------------------------------------|
G|-------------------------------------------------|
D|-22222-88888/77777-------------------------------|
A|-22222-88888/77777-------------------------------|
E|-00000-66666/55555-------------------------------|

LAST CHORUS
e|-------------------  ------------------------------|
B|-------------------  ------------------------------|
G|-------------------  ------------------------------|
D|-22222-88888/77777-  --77777-1212121212/1010101010-|
A|-22222-88888/77777-X8--77777-1212121212/1010101010-|
E|-00000-66666/55555-  --55555-1010101010/8 8 8 8 8--|

END (fast)
e|---------------------------------------------------|
B|---------------------------------------------------|
G|---------------------------------------------------|
D-13-12-13-12-13-12-13-12-77-------------------------|
A-13-12-13-12-13-12-13-12-77-------------------------|
E-11-10-11-10-11-10-11-10-55-------------------------|

LYRICS

Gdy nie mozesz spac w nocy, nie rob nic, zamknij oczy
I udawaj przed swiatem, ze spisz
Zacznij snuc skryte plany, jak to zrobic, by rano
Z tego swiata nie zostal ni lisc
Kiedy peka ci w glowie mysl, ze nadszedl juz koniec
Kiedy dlonie sztywnieja na kosc
Podpal soba ulice, zacznij szarpac i krzyczec
Ja ci szybko wybacze te zlosc

Na wszystkie cztery strony, ten swiat popierdolony!
Na wszystkie cztery strony, ten swiat popierdolony!
Na wszystkie cztery strony, ten swiat popierdolony!
Na wszystkie cztery strony, ten swiat popierdolony!

Kiedy wkolo nic nie ma, kiedy pali sie ziemia
Czarne serce ma w herbie twoj los
Nedzny twoj aniol stroz w plecy wbity ma noz
Ty mu jeszcze w podziece zlam nos!
Kiedy jest niewygodnie, kiedy robi sie chlodniej
A za szyba panoszy sie mrok
Glupi sen sobie wysnij i za gardlo go scisnij,
W ciemna przyszlosc bez sensu zrob krok

Na wszystkie cztery strony, ten swiat popierdolony!
Na wszystkie cztery strony, ten swiat popierdolony!
Na wszystkie cztery strony, ten swiat popierdolony!
Na wszystkie cztery strony, ten swiat popierdolony!
Na wszystkie cztery strony, ten swiat popierdolony!
Na wszystkie cztery strony, ten swiat popierdolony!

www.ckod.com.pl
POLISH BAND!


Текст, аккорды и табулатура для песни "Cool Kids Of Death - Na Wszystkie Cztery Strony", исполняет "Misc Unsigned Bands".
Используемые в песне аккорды можно найти в разделе Как брать аккорды. Аккорды для шестиструнной гитары. Другие песни можно найти на нашем сайте, воспользовавшись алфавитным указателем вверху страницы.


 
Ошибка в тексте? Выделите ошибку и нажмите Ctrl+Enter