-------------------------------------------------------------------------------
			     Time Again - Contimatious Coincide
-------------------------------------------------------------------------------

Tabbed By : Jacob Sherman
e-mail: [email protected]

Tuning:EADG

Introduction                   Interlude
  D      F C G D     F C G       Ami     D Ami       D G   F   G   F         
G|-----------------------------|----------------------------------------------|
D|-0-0-2-3-----0-0-2-3-----3pop|---------0---------3-0---5---3---5---3--------|
A|---------3-----------3-------|-0-0-2-3---0-0-2-3----------------------------|
E|-----------3-----------3-----|-----------------------3---1---3---1----------|

Bridge
  G C# Bb C          
G|----------5pop|-------6---3--5|
D|--------------|---5-----------|
A|---4-1-3------|-----4----1--3-|
E|-3------------|-3-------------|

Verse
    G    F     G    Bb
G|---------------------3pop-3pop-3pop|
D|--5pop--3pop--5pop-----------------|
A|-------------------1---------------|
E|-3slp--1slp--3slp------------------|

Solo

Outro
G|------------|
D|---5------3-|
A|----3-4-5---|
E|-3----------|

Order

Intro 
Inturlude
Intro 
Bridge 2x
Verse  3x
Solo   4x
Outro 16x

| /  slide up
|   slide down
| h  hammer-on
| p  pull-off
| ~  vibrato
| +  harmonic
| x  Mute note

The web site for contumatious coincide is http://sasafras7.tripod.com/
==============================================


Текст, аккорды и табулатура для песни "Contumacious Coincide - Time Again", исполняет "Misc Unsigned Bands".
Используемые в песне аккорды можно найти в разделе Как брать аккорды. Аккорды для шестиструнной гитары. Другие песни можно найти на нашем сайте, воспользовавшись алфавитным указателем вверху страницы.


 
Ошибка в тексте? Выделите ошибку и нажмите Ctrl+Enter