-----------------------------------------------------------------------------
			     Change Handle - Contumacious Coincide
-----------------------------------------------------------------------------

Tabbed By : Jacob Sherman
e-mail: [email protected]

Tuning:

  Intro/chorus 1/outro
G|------------------------------------------------|
D|--7------------3------------------5-------------|
A|----------------------------5-7-8---8-7-5-------|
E|-5--5--7-8-7--1--5-7-8-7--8---------------------|

  Chorus 2
G|----------------------------------5----5----5-----------------------------|
D|----7----7----7----3----3----3--------------------------5----5----5-------|
A|-------------------------------3-3--3-3--3-3------------------------------|
E|-5-5--5-5--5-5--1-1--1-1--1-1------------------------3-3--3-3--3-3--------|
 verse

G|-------------------|
D|-----7-----7-----7-|
A|-------------------|
E|-5-5---5-5---5-5---|

Intro
Chorus 1
Verse 4x
Chorus 2
verse 4x
Chorus 1
outro

| /  slide up
|   slide down
| h  hammer-on
| p  pull-off
| ~  vibrato
| +  harmonic
| x  Mute note
=============================================================================


Текст, аккорды и табулатура для песни "Contumacious Coincide - Change Handle", исполняет "Misc Unsigned Bands".
Используемые в песне аккорды можно найти в разделе Как брать аккорды. Аккорды для шестиструнной гитары. Другие песни можно найти на нашем сайте, воспользовавшись алфавитным указателем вверху страницы.


 
Ошибка в тексте? Выделите ошибку и нажмите Ctrl+Enter