“Whose Destiny Was That?”
By Checkers & Stripes
From their new album “Life Just Sucks!”

Verse		(Distorted)
|---------------------------------------|
|--77777777-----------------------------|
|--66666666-77777777-99999999-44444444--|
|--44444444-77777777-99999999-44444444--|
|-----------55555555-77777777-22222222--|
|---------------------------------------|

Chorus (Distorted)
|-----------------------|
|-----------------------|
|--7777-----------------|
|--7777-7777-5555-9999--|
|--5555-7777-5555-9999--|
|-------5555-3333-7777--|

Interlude (Clean)
|----------------------------------|
|-7----7-------------------------7-|
|---6----6--7------9-----4-------6-|
|-----4 ---4---7-----9------4----4-|
|-----------------5-----7------2---|
|----------------------------------|		

Order:
Verse
Chorus 
Verse
Chorus
Interlude
Verse

Lyrics:
Whenever I was late for our dates you always waited
You would always cradle me in your arms til I was no longer wasted
No matter what I would do you’d put up with me
We had something so special why couldn’t I see

Chorus:
Do you miss the times we used to play
Back then if we saw ourselves now what would we say
I miss how I used to sleep by you on the floor
But it’ll never happen again since we’re not together anymore

In case you’re wondering why I wrote this song
It’s to say I’m sorry I was the one that was wrong
Did I just act like I was way too stuck up
Or like you weren’t good enough

Chorus

So I’d like to say I’m really sorry too
But there’s nothing for me to try to do
I’ll never go back to the way I was 
Don’t try to change me it’s a lost cause



If you would like more info about Checkers & Stripes send an E-mail to:
[email protected]
And type Bio in the subject.


Текст, аккорды и табулатура для песни "Checkers And Stripes - Whose Destiny Was That", исполняет "Misc Unsigned Bands".
Используемые в песне аккорды можно найти в разделе Как брать аккорды. Аккорды для шестиструнной гитары. Другие песни можно найти на нашем сайте, воспользовавшись алфавитным указателем вверху страницы.


 
Ошибка в тексте? Выделите ошибку и нажмите Ctrl+Enter