-------------------------------------------------------------------------------
			     DUMBARTON ANTHEM - CFS
-------------------------------------------------------------------------------

Tabbed by: Mike
Email: [email protected]

Tuning:standard

this is a song my my band chinese food stand. we're a pop punk blink182ish band
outta towson MD. this is out first song, its like really simple and stuff(kinda
like the ramones come to think of it lol) but weve got better stuff i just put
this song on cuz the bass tabs are on this site too.

intro(clean):

e|---------------------------------------------------------------------------|
B|---------------------------------------------------------------------------|
G|------------------8-8-8-8-8-8-8-8--1010101010101010-6-6-6-6-6-6-6-6--------|
D|-6-6-6-6-6-6-6-6--8-8-8-8-8-8-8-8--1010101010101010-6-6-6-6-6-6-6-6--X2----|
A|-6-6-6-6-6-6-6-6--6-6-6-6-6-6-6-6--8-8-8-8-8-8-8-8--4-4-4-4-4-4-4-4--------|
E|-4-4-4-4-4-4-4-4-----------------------------------------------------------|

with distortion 3 more times for the verse/chorus

bridge 1
e|---------------------------------------------------------------------------|
B|---------------------------------------------------------------------------|
G|----6-6--8-8--4-4-----6-6--8-8--4-6-6-----6-6--8-8--4-4--------------------|
D|-4--6-6--8-8--4-4--4--6-6--8-8--4-6-6--4--6-6--8-8--4-4--------------------|
A|-4--4-4--6-6--2-2--4--4-4--6-6--2-4-4--4--4-4--6-6--2-2--------------------|
E|-2-----------------2-------------------2-----------------------------------|

e|---------------------------------------------------------------------------|
B|---------------------------------------------------------------------------|
G|----6-6--8-8-8-8-8-8-8-8--4-4-4-4-4-4-4-4----------------------------------|
D|-4--6-6--8-8-8-8-8-8-8-8--4-4-4-4-4-4-4-4--6-------------------------------|
A|-4--4-4--6-6-6-6-6-6-6-6--2-2-2-2-2-2-2-2--6-------------------------------|
E|-2-----------------------------------------4-------------------------------|



e|---------------------------------------------------------------------------|
B|---------------------------------------------------------------------------|
G|-101010101010-8-8-8-8-8-8--------------------------------------------------|
D|-101010101010-8-8-8-8-8-8--[OVER LAST 2 NOTES OF BASS SOLO]----------------|
A|-8-8-8-8-8-8--6-6-6-6-6-6--------------------------------------------------|
E|---------------------------------------------------------------------------|

bridge 2ish thing?

e|---------------------------------------------------------------------------|
B|---------------------------------------------------------------------------|
G|---------------8-8-8--8-8-8--101010-101010-6-6-6--6-6-6--------------------|
D|-6-6-6--6-6-6--8-8-8--8-8-8--101010-101010-6-6-6--6-6-6---X2---------------|
A|-6-6-6--6-6-6--6-6-6--6-6-6--8-8-8--8-8-8--4-4-4--4-4-4--------------------|
E|-4-4-4--4-4-4--------------------------------------------------------------|
   X X    X X    X X    X X    X X    X X    X X    X X


CHOURUS 4 TIMES:

e|---------------------------------------------------------------------------|
B|---------------------------------------------------------------------------|
G|------------------8-8-8-8-8-8-8-8--1010101010101010-6-6-6-6-6-6-6-6--------|
D|-6-6-6-6-6-6-6-6--8-8-8-8-8-8-8-8--1010101010101010-6-6-6-6-6-6-6-6--------|
A|-6-6-6-6-6-6-6-6--6-6-6-6-6-6-6-6--8-8-8-8-8-8-8-8--4-4-4-4-4-4-4-4--------|
E|-4-4-4-4-4-4-4-4-----------------------------------------------------------|
on one and 3

e|---------------------------------------------------------------------------|
B|---------------------------------------------------------------------------|
G|-----------88888888--10-10-10-10-6-6-6-6-6-6-6-6-6-6-6-8-------------------|
D|-66666666--88888888--10-10-10-10-6-6-6-6-6-6-6-6-6-6-6-8-------------------|
A|-66666666--66666666--8--8--8--8--4-4-4-4-4-4-4-4-4-4-4-6-------------------|
E|-44444444------------------------------------------------------------------|
                                     X X X X   X X X X  
on two and four...i know its confusing

 x=Mute note
LYRICS

(during intro)
why is life so hard
i dont understand it
i cant take this constant pounding
im not apprecieated
i dont wanna be the best
i just want to get by
i hate being the last
i just cant seem to get by

wake up every morning
words runnin through my head
come back in ten more minutes
i wanna stay in bed
just leave me alone
i dont wanna try
the last thing i wanna do
is have to open my eyes
i dont wanna be the best
i just want to get by
i hate being the last
i just cant seem to get by

(bridge 1 / bass solo)

(during bringe 2 thingy)
back off this is my
territory
if theres one thing that i hate
its hot chicks hating me
i always get blamed
for things that i dont do
im sure that you hate me
well guess what
i hate you
(chourus things:)

i dont wanna be the best
i just want to get by
i hate being the last
i just cant seem to get by
i dont wanna be the best (why is life so hard)
i just want to get by (i dont understand it)
i hate being the last (i cant take this constant pounding)
i just cant seem to get by (im not apprecieated)
then 2 more times with nana's in the () thingys


so there it is...hopefully ill tab one of our better songs soon...enjoi
===============================================================================


Текст, аккорды и табулатура для песни "Cfs - Dumbarton Anthem", исполняет "Misc Unsigned Bands".
Используемые в песне аккорды можно найти в разделе Как брать аккорды. Аккорды для шестиструнной гитары. Другие песни можно найти на нашем сайте, воспользовавшись алфавитным указателем вверху страницы.


 
Ошибка в тексте? Выделите ошибку и нажмите Ctrl+Enter