BUNNY STOMP IS A NEW BAND OUT OF MONMOUTH, MAINE. THEY HAVE NO CDS YET BUT ARE In
THE MAKING OF A DEMO TAPE.  THERE ARE 3 MEMBERS NR, JC, DC.

INTRO/VERSE
G=--------------------------------------
D=--------------------------------------
A=--------------------------------------
E=-9-99-8080----------------------------

CHORUS
G=--------------------------------------
D=--------------------------------------
A=--------------------------------------
E=-0-00-1111----------------------------

GUITAR SOLO
G=-------------------------------------------------------------
D=-------------------------------------------------------------
A=-------------------------------6-66-7777-6-66-7777-6-66-7777-
E=-0-00-1111-0-00-1111-0-00-1111-------------------------------

GUITAR SOLO (CONTINUED)
G=----------------------------------------------------
D=----------------------------------------------------
A=----------------------------------------------------
E=-12-1212-13131313-12-1212-13131313-12-1212-13131313-

INTRO/VERSE (X20)
CHORUS (X8)
INTR0/VERSE (X16)
CHORUS (X8)
GUITAR SOLO (X1)
CHORUS (X4)
INTRO/VERSE (X16)
CHORUS (X8)

THIS SONG IS EASY,BUT KICK-ASS!


Текст, аккорды и табулатура для песни "Bunny Stomp - Car Explosions", исполняет "Misc Unsigned Bands".
Используемые в песне аккорды можно найти в разделе Как брать аккорды. Аккорды для шестиструнной гитары. Другие песни можно найти на нашем сайте, воспользовавшись алфавитным указателем вверху страницы.


 
Ошибка в тексте? Выделите ошибку и нажмите Ctrl+Enter