More of my tabs!
-------------------------------------------------------------------------------
			     Hard to be Mortal - Brian Pritchett
-------------------------------------------------------------------------------
Tabbed by: Brian Pritchett	
Email: [email protected]

Tuning: Half a step down

eb|----------------------------|
Bb|-------3--------------3-1-O-|
Gb|-------O------------O-O-O-O-| X4
Db|-----4------------2---------|
Ab|---2------------3-----------|
Eb|-O--------------------------|
    
eb|-------4--------------2-O-O-|
Bb|-------5--------------3-3-3-|
Gb|----------------------------| X4
Db|-----6--------------4-------|
Ab|---4--------------2---------|
Eb|-O--------------O-----------|

eb|----------------------------|
Bb|-------3-1-O----------3-1-O-|
Gb|-----O-O-O-O--------2-2-2-2-| 
Db|---2--------------2---------|
Ab|-3--------------O-----------|
Eb|----------------------------|

Once you are done with that repeat it all once more. Below are the lyrics that
I wrote to this. Just sort of match them with the rythem.

Hiding away
Nothing to say
Forever ignored
Always it's stored

Ending mine
Perhaps in time
Probably never
To hard to endevor

You can't see 
What I've done to me
Feels like I've lost
Lost but what it costs

Think I should pay
I'll last one more day
Hold on to morals
Hard to be mortal

Should I
Stay and sigh
Torn away
Tired of play

Be told
Or be scold
Difficult design
I laugh inside

You can't see 
What I've done to me
Feels like I've lost
Lost but what it costs

Think I should pay
I'll last one more day
Hold on to morals
Hard to be mortal


Текст, аккорды и табулатура для песни "Brian Pritchett - Hard To Be Mortal", исполняет "Misc Unsigned Bands".
Используемые в песне аккорды можно найти в разделе Как брать аккорды. Аккорды для шестиструнной гитары. Другие песни можно найти на нашем сайте, воспользовавшись алфавитным указателем вверху страницы.


 
Ошибка в тексте? Выделите ошибку и нажмите Ctrl+Enter