Band : Blu Circle
Song : Start It Up

www.blucircle.20m.com
Hey ppl. The Amazing Graham it is. This results is love for blu circle 
and becoz of boredom. Oh well here it goes:

Intro/verse

e-------------------------------------------
b-------------------------------------------
g------------7-7-7-7-------------5-5-5-5----
d--7-7-7-7---7-7-7-7---5-5-5-5---5-5-5-5----
a--7-7-7-7---5-5-5-5---5-5-5-5---3-3-3-3----
e--5-5-5-5-------------3-3-3-3--------------

Main Riff

e-----------------------------------------
b-----------------------------------------
g-----------------------------------------
d--0-0-3-0-5-0-6-0---0-0-3-0-5-0-6--------
a-----------------------------------------
e-----------------------------------------

Main Riff (2)

e-----------------------------------------
b-----------------------------------------
g--2-2-5---7---8-2---2-2-5---7---8--------
d--2-2-5---7---8-2---2-2-5---7---8--------
a--0-0-3-0-5-0-6-0---0-0-3-0-5-0-6--------
e-----------------------------------------


Bridge   A5   D5    G5    C5



Outro

e------------------------------------------
b------------------------------------------
g------------------------------------------
d------------------------------------------
a------------------------------------------
e--0-0-3-0-5-0-6-0---0-0-3-0-5-0-6---------


Then play the above but in power chord form


Thats it peeps. There's is some more but i'm lazy and its the same chords
as intro. 

Live The Dream


Текст, аккорды и табулатура для песни "Blu Circle - Start It Up", исполняет "Misc Unsigned Bands".
Используемые в песне аккорды можно найти в разделе Как брать аккорды. Аккорды для шестиструнной гитары. Другие песни можно найти на нашем сайте, воспользовавшись алфавитным указателем вверху страницы.


 
Ошибка в тексте? Выделите ошибку и нажмите Ctrl+Enter